Final Warning - Untitled Chords & Tabs

 

Untitled Chords & Tabs

Final Warning Chords & Tabs

Version: 1 Type: Tab 0 ratings
1 star 2 stars 3 stars 4 stars 5 stars
comments

Untitled Tab

   
Intro:B F# G# E high x2

then guitar 2 comes in and plays the B on the d strings a bunch of times.

then the verse is just B F# G# E high x 3 then the fourth time it goes
B F# G# E high D B

the chorus is just B F# G# E high

then the verse again then the chorus twice

the bridge goes C# hold F# hold C# PM E low F#

then the chours then the huge solo which is a masterpiece by Nathaniel
[ Tab from: http://www.guitartabs.cc/tabs/f/final_warning/untitled_tab.html ]
E|-11-11-12-11-12^-12-----11-12-11-----14---14-----16-14----16-14-|
B|---------------------12------------14^--14^----16------16-------|

E|-16p-14p-12p-11p-9--9-11--9-7h9p7--9-7h9p7---7----------|
B|---------------------------------9--------9---9p7-5-6/9-|

B|----------------------------------------------------9-7----|
G|----4h6-6^--4h6p4------------------------------------------|
D|-4h6---------------5p0-4p0-5p0-4p0-5p0-4p0-5p0-4p0---------|

E|--------15----17p15--------------------------------------------|
B|15-15-13---13---------13h15-15^15^15^15-13--13h15-15^15^15^-13-|

final warning forever
Comments