Final Fantasy 7 - Wall Market Opressed People Chords & Tabs

 

Wall Market Opressed People Chords & Tabs

Final Fantasy 7 Chords & Tabs

Version: 1 Type: Bass Tab 0 ratings
1 star 2 stars 3 stars 4 stars 5 stars
comments

Wall Market Opressed People Bass Tab

Final Fantasy 7 - Wall Market theme (Opressed People) - Bass tab
By: Mike Yates (re1master)

This is my first tab, Enjoy!

G------------------------------------|
D------------------------------------|
A--1-1----------2----1-1---------2---|
E------1----2-2----------1-1-2-2-----|

G------------------------------------|
D------------------------------------|
A--1-1----------2----1-1---------2---|
E------1----2-2----------1-1-2-2-----|

G------------------------------------|
D------------------------------------|
A--1-1----------2----1-1---------2---|
E------1----2-2----------1-1-2-2-----|

G------------------------------------|
D------------------------------------|
A--1-1----------2----1-1---------2---|
E------1----2-2----------1-1-2-2-----|
[ Tab from: http://www.guitartabs.cc/tabs/f/final_fantasy_7/wall_market_opressed_people_btab.html ]
G--------------------------------------------------------|
D--------------------------------------------------------|
A--1------1-3-3-0-1----------1------1-3-3-0-1---------1--|
E----------------------2--4----------------------2--4----|

Pause after the riff above, then start with the next riff.

G-------------------------|
D-------------------------|
A-1-1-1---1---------2---2-|
E-------1---1-2-2-2---2---|

This part got a little tricky so its not exactly how the song is played, but it still sounds fine.

G-----------------------|
D-----------------------|
A-1-1-------------2---2-|
E-----1-1-1-2-2-2---2---|

G-------------------------|
D-------------------------|
A-1-1-1---1---------2---2-|
E-------1---1-2-2-2---2---|

G-----------------------------------------------------------------------------|
D-----------------------------------------------------------------------------|
A-1-1-------------2---2-------2---2-------2---2-------2---2-------2---2-------|
E-----1-1-1-2-2-2---2---2-2-2---2---2-2-2---2---2-2-2---2---2-2-2---2---2-2-2-|

The song keeps repeating, so you can play all day!
Comments