Filter - Where Do We Go From Here Chords & Tabs

 

Where Do We Go From Here Chords & Tabs

Filter Chords & Tabs

Version: 2 Type: Tab 0 ratings
1 star 2 stars 3 stars 4 stars 5 stars
comments

Where Do We Go From Here Tab

Artist: Filter
Title: Where do we go from here
tabbed by: Ratmer (Ratmer@gmx.at)


Drop D - Tuning

Verse (acoustic)

E|---2--2--2--2---0--0--0--0-----------------------------
B|---2--2--2--2---3--3--3--3-----------------------------
G|---4--4--4--4---2--2--2--2---7--7--7--7---4--4--4--4---
D|---4--4--4--4---0--0--0--0---7--7--7--7---4--4--4--4---
A|---2--2--2--2---0--0--0--0---5--5--5--5---2--2--2--2---
D|----------------0--0--0--0---5--5--5--5---2--2--2--2---
    
 play each chord several times

play this only at the 4th time:
E|---2--2--2--2-----------------------------0--0--0--0---|
B|---2--2--2--2-----------------------------3--3--3--3---|
G|---4--4--4--4---4--4--4--4---7--7--7--7---2--2--2--2---|
D|---4--4--4--4---4--4--4--4---7--7--7--7---0--0--0--0---|
A|---2--2--2--2---2--2--2--2---5--5--5--5---0--0--0--0---|
D|----------------2--2--2--2---5--5--5--5---0--0--0--0---|



Bridge (distorted)

E|----------------------------------------|
B|----------------------------------------|
G|---------------------------5--5--5--5---|
D|---x--x--5--h8--8--8---0---5--5--5--5---|
A|---x--x--5--h8--8--8---0---3--3--3--3---|
D|---x--x--5--h8--8--8---0----------------|


Chorus
[ Tab from: http://www.guitartabs.cc/tabs/f/filter/where_do_we_go_from_here_tab_ver_2.html ]
E|---2--2--2--2---0--0--0--0-----------------------------
B|---2--2--2--2---3--3--3--3-----------------------------
G|---4--4--4--4---2--2--2--2---7--7--7--7---4--4--4--4---
D|---4--4--4--4---0--0--0--0---7--7--7--7---4--4--4--4---
A|---2--2--2--2---0--0--0--0---5--5--5--5---2--2--2--2---
D|----------------0--0--0--0---5--5--5--5---2--2--2--2---


E|---2--2--2--2-----------------------------0--0--0--0---|
B|---2--2--2--2-----------------------------3--3--3--3---|
G|---4--4--4--4---4--4--4--4---7--7--7--7---2--2--2--2---|
D|---4--4--4--4---4--4--4--4---7--7--7--7---0--0--0--0---|
A|---2--2--2--2---2--2--2--2---5--5--5--5---0--0--0--0---|
D|----------------2--2--2--2---5--5--5--5---0--0--0--0---|

Solo (with wah wah)

E|-------------------------------------------------------------|
B|-------------------------------------------------------------|
G|---7--9--9-----9--10--12--7--9--9-----9--7------7--9--9------|
D|------------7----------------------7--------10-----------7---|
A|-------------------------------------------------------------|
D|-------------------------------------------------------------|

ORDER:
Intro (it's just the verse with FX)
Verse
Bridge
Chorus
Verse
Bridge
Chorus
Interlude (it's just the verse with FX and different picking)
Solo (with Bridge)
Chorus

h.............hammer on
x.............dead note

That's it, have fun and buy the new FILTER record!
Comments