Filter - Where Do We Go From Here Chords & Tabs

 

Where Do We Go From Here Chords & Tabs

Filter Chords & Tabs

Version: 1 Type: Tab 0 ratings
1 star 2 stars 3 stars 4 stars 5 stars
comments

Where Do We Go From Here Tab

   
song:  Where Do We Go From Here
band:  Filter
Album: The Amalgamut
Tuning: Drop-D


tabbed by: 'Nufan' - Peter Tom Takaro 
problems & feedback on nouseforaname@freemail.hu


keys,               

/   = slide up
\   = slide down
X   = natural harmonic of upcoming chord
x   = strum muted sting
... = chord played several times
h   = hammer on
p   = pull off
~   = let ring
^   = bend down

Intro
E|---------------------------------------------------------------|
B|---------------------------------------------------------------|
G|---------------------------------------------------------------|
D|-XX-11-------------0--------------7--------------2-------------|
A|-XX--x-------------0--------------x--------------2-------------|
D|-XX--9...----------0...-----------5...-----------2...----------|

Verse/Chorus    (acoustic/distorted)
E|---------------------------------------------------------------|
B|-------------------3-------------------------------------------|
G|--11---------------2--------------7----------------------------|
D|--11---------------0--------------7--------------2-------------|
A|---9---------------0--------------5--------------2-------------|
D|---9...------------0...-----------5...-----------2...----------|
[ Tab from: http://www.guitartabs.cc/tabs/f/filter/where_do_we_go_from_here_tab.html ]
Pre-Chorus
E|---------------------------------------------------------------|
B|---------------------------------------------------------------|
G|--------------------------------12-12-12-12-12-12-12-12--------|
D|-XXXX--5/8-8-8-8---0---0-0--0---12-12-12-12-12-12-12-12--------|
A|-XXXX--5/8-8-8-8---0---0-0--0---10-10-10-10-10-10-10-10--------|
D|-XXXX--5/8-8-8-8---0---0-0--0---10-10-10-10-10-10-10-10--------|

Bridge til' solo

Guitar 1
E|---------------------------------------------------------------|
B|--10--10-10-10\7-7-7-7\3-3-3-----10--10-10-10\7-7h8p7~---------|
G|-----------------------------4-4-------------------------------|
D|---------------------------------------------------------------|
A|---------------------------------------------------------------|
D|---------------------------------------------------------------|
Guitar 2
E|---2-------------------------------------------------2---------|
B|---2---------------3--------------5-----------------5----------|
G|---4---------------2--------------7----------------4-----------|
D|---4---------------0--------------7---------------2------------|
A|---2...------------0--------------5--------------2-------------|
D|-------------------0...-----------5...----------2--------------|

Solo thingie

Guitar 1
E|-------------------------------------------------------------------|
B|-3/5\3----3^-3/5\3--5^--8^--3/5\3---3^-3/5\3-----3/5\3---3^-3/5\3~-|
G|-------2--------------------------2----------2^--------2-----------|
D|-------------------------------------------------------------------|
A|-------------------------------------------------------------------|
D|-------------------------------------------------------------------|

Guitar 2 plays Pre-Chorus part


that's it,enjoy!
Comments