Filter - Welcome To The Fold Chords & Tabs

 

Welcome To The Fold Chords & Tabs

Filter Chords & Tabs

Version: 2 Type: Tab 0 ratings
1 star 2 stars 3 stars 4 stars 5 stars
comments

Welcome To The Fold Tab

   
"Welcome to the Fold"
   Filter
   TITLE OF RECORD
   Tabbed by:DJ(Modium@aol.com)
   http://www.angelfire.com/ri/modium

   If ya didn't know:
   ^=bend
   /=slide
   h=hammer-on
   p=pull-off
   *=harmonic/feedback
   pm=palm-mute

   okay, the tuning...tune both guitars in drop D,
   then drop it 2 & a half additional steps to drop A tuning.
   The strings go, from highest to lowest:
   B D F# A E A

   when you see to lines of tab connected, that's guitar 1 on top,
   & guitar 2 on the bottom

   Try not to get confused :)

   ((main riff))
   e|------------------------------------------------------
   b|------------------------------------------------------
   g|------------------------------------------------------
   d|---3/5-5-5--3---3/5-5-5--3---3/5-5-5--3---3/5-5-5//8--
   a|------------------------------------------------------
   E|---3/5-5-5--3-0-3/5-5-5--3-0-3/5-5-5--3-0-3/5-5-5//8--

   e|-----------------------------------------------------
   b|-----------------------------------------------------
   g|-----------------------------------------------------
   d|---3/5-5-5--3---3/5-5-5--3---3/5-5-5--3---3---3---3--
   a|-----------------------------------------------------
   E|---3/5-5-5--3-0-3/5-5-5--3-0-3/5-5-5--3-0-3-0-3-0-3--
   this riff is played throughout all the verses & intro

   ((first verse))

   You take my money, You think you're great
   You think it's funny, I hate your face Yeah!
   You got your Jesus, & I got my space
   You got your reasons, & I got my case

   ((first chorus))

   You just gotta sit yourself down
   e|----------------------------------------------------
   b|----------------------------------------------------
   g|----------------------------------------------------
   d|---3/5----------------------2/3----------3*---------
   a|----------------------------------------------------
   E|---3/5-----------------5-5--2/3----------------3-3--
   | |pm| |pm|
   e|----------------------------------------------------
   b|----------------------------------------------------
   g|----------------------------------------------------
   d|---3/5---------5*-----------2/3-3*------------------
   a|----------------------------------------------------
   E|---3/5-----------------5-5--2/3----------------3-3--
   |pm| |pm|

   to comtemplate
   e|---------------------------------------------------
   b|---------------------------------------------------
   g|-----------------------------0---10--10-10-10\-----
   d|---/8-----------------------10---10--10-10-10\-----
   a|---------------------------------------------------
   E|---/8------------------8-8--10----------------0-0--
   | |pm| |pm|
   e|---------------------------------------------------
   b|---------------------------------------------------
   g|-----------------------------0---10--10-10-10\-----
   d|---/8-----------------------10---10--10-10-10\-----
   a|---------------------------------------------------
   E|---/8------------------8-8--10----------------0-0--
   |pm| |pm|

   Get yourself a nice cold beer
   e|----------------------------------------------------
   b|----------------------------------------------------
   g|----------------------------------------------------
   d|---3/5----------------------2/3----------3*---------
   a|----------------------------------------------------
   E|---3/5-----------------5-5--2/3----------------3-3--
   | |pm| |pm|
   e|----------------------------------------------------
   b|----------------------------------------------------
   g|----------------------------------------------------
   d|---3/5----------------------2/3---------------------
   a|----------------------------------------------------
   E|---3/5-----------------5-5--2/3----------------3-3--
   |pm| |pm|

   And drink yourself away
   e|---------------------------------------------------
   b|---------------------------------------------------
   g|---------------------------------------------------
   d|---/8-----------------------10----------------10\--
   a|---------------------------------------------------
   E|---/8------------------8-8--10----------------10\--
   | |pm| 
   e|---------------------------------------------------
   b|---------------------------------------------------
   g|---------------------------------------------------
   d|---/8-----------------------10----------------10\--
   a|---------------------------------------------------
   E|---/8------------------8-8--10----------------10\--
   |pm| 

   You're celebrating nothing
   e|--------------------------------------------
   b|--------------------------------------------
   g|--------------------------------------------
   d|---9----9----9----9----9/10---10---10---10--
   a|--------------------------------------------
   E|---9----9----9----9----9/10---10---10---10--
   |
   e|----------------------------------------------------
   b|----------------------------------------------------
   g|----------------------------------------------------
   d|---3/5---------5*-----------2/3-----3*--------------
   a|----------------------------------------------------
   E|---3/5-----------------5-5--2/3----------------3-3--
   |pm| |pm|

   And you feel A O Kay
   e|----------------------------------------------
   b|----------------------------------------------
   g|----------------------------------------------
   d|---10/12--12---12---12--12\10---10---10---10--
   a|----------------------------------------------
   E|---10/12--12---12---12--12\10---10---10---10--
   |
   e|---------------------------------------------------
   b|---------------------------------------------------
   g|---------------------------------------------------
   d|---/8----------------8*-----10----------------10\--
   a|---------------------------------------------------
   E|---/8-----------------------10----------------10\--

   You're celebrating nothing
   e|--------------------------------------------
   b|--------------------------------------------
   g|--------------------------------------------
   d|---9----9----9----9----9/10---10---10---10--
   a|--------------------------------------------
   E|---9----9----9----9----9/10---10---10---10--
   |
   e|----------------------------------------------------
   b|----------------------------------------------------
   g|----------------------------------------------------
   d|---3/5---------5*-----------2/3-----3*--------------
   a|----------------------------------------------------
   E|---3/5-----------------5-5--2/3---------------------
   |pm|

   And you feel
   e|-----------------------------------------------
   b|-----------------------------------------------
   g|-----------------------------------------------
   d|---10/12-12-12-12--12-12-12-12-12-12-12-12-12--
   a|-----------------------------------------------
   E|---10/12-12-12-12--12-12-12-12-12-12-12-12-12--
   |
   e|---------------------------------------------------
   b|---------------------------------------------------
   g|---------------------------------------------------
   d|---/8----------------------------------------------
   a|---------------------------------------------------
   E|---/8----------------------------------------------

   A O Kaaaaay!
   e|------------------------------------------------
   b|------------------------------------------------
   g|------------------------------------------------
   d|---/15--15-15-15-15-15-15-15-15-15-15-15-15-15--
   a|------------------------------------------------
   E|---/15--15-15-15-15-15-15-15-15-15-15-15-15-15--
   |
   e|------------------------------------------------
   b|------------------------------------------------
   g|------------------------------------------------
   d|---10---------10----------10-10-10-10-10-10-10--
   a|------------------------------------------------
   E|---10---------10----------10-10-10-10-10-10-10--

   Then play the main riff to lead into the 2nd verse,
   & throughout the 2nd verse too

   ((second verse))

   You think you're precious, I think you're sh*t
   & I'd kill your father, to destroy his seed
   Oh nothing will ever destroy your greed

   ((second chorus))



   You're celebrating nothing
   e|--------------------------------------------
   b|--------------------------------------------
   g|--------------------------------------------
   d|---9----9----9----9----9/10---10---10---10--
   a|--------------------------------------------
   E|---9----9----9----9----9/10---10---10---10--
   |
   e|----------------------------------------------------
   b|----------------------------------------------------
   g|----------------------------------------------------
   d|---3/5---------5*-----------2/3-----3*--------------
   a|----------------------------------------------------
   E|---3/5-----------------5-5--2/3----------------3-3--
   |pm| |pm|

   And you feel A O Kay
   e|----------------------------------------------
   b|----------------------------------------------
   g|----------------------------------------------
   d|---10/12--12---12---12--12\10---10---10---10--
   a|----------------------------------------------
   E|---10/12--12---12---12--12\10---10---10---10--
   |
   e|---------------------------------------------------
   b|---------------------------------------------------
   g|---------------------------------------------------
   d|---/8----------------8*-----10----------------10\--
   a|---------------------------------------------------
   E|---/8-----------------------10----------------10\--
[ Tab from: http://www.guitartabs.cc/tabs/f/filter/welcome_to_the_fold_tab_ver_2.html ]
   You're celebrating nothing
   e|--------------------------------------------
   b|--------------------------------------------
   g|--------------------------------------------
   d|---9----9----9----9----9/10---10---10---10--
   a|--------------------------------------------
   E|---9----9----9----9----9/10---10---10---10--
   |
   e|----------------------------------------------------
   b|----------------------------------------------------
   g|----------------------------------------------------
   d|---3/5---------5*-----------2/3-----3*--------------
   a|----------------------------------------------------
   E|---3/5-----------------5-5--2/3---------------------
   |pm|

   And you feel
   e|-----------------------------------------------
   b|-----------------------------------------------
   g|-----------------------------------------------
   d|---10/12-12-12-12--12-12-12-12-12-12-12-12-12--
   a|-----------------------------------------------
   E|---10/12-12-12-12--12-12-12-12-12-12-12-12-12--
   |
   e|---------------------------------------------------
   b|---------------------------------------------------
   g|---------------------------------------------------
   d|---/8----------------------------------------------
   a|---------------------------------------------------
   E|---/8----------------------------------------------

   A O Kaaaaay!
   e|------------------------------------------------
   b|------------------------------------------------
   g|------------------------------------------------
   d|---/15--15-15-15-15-15-15-15-15-15-15-15-15-15--
   a|------------------------------------------------
   E|---/15--15-15-15-15-15-15-15-15-15-15-15-15-15--
   |
   e|------------------------------------------------
   b|------------------------------------------------
   g|------------------------------------------------
   d|---10---------10----------10-10-10-10-10-10-10--
   a|------------------------------------------------
   E|---10---------10----------10-10-10-10-10-10-10--

   ((first solo w/ wah & slide))

   e|------------------------------------------
   b|---------12-------------12------------12--
   g|---10/12----12\10-10/12----12---10/12-----
   d|------------------------------------------
   a|------------------------------------------
   E|------------------------------------------

   e|-------------------------------
   b|---------12-------------12-----
   g|---10/12----12\10-10/12----12--
   d|-------------------------------
   a|-------------------------------
   E|-------------------------------

   e|------------------------------------------
   b|---------12-------------12------------12--
   g|---10/12----12\10-10/12----12---10/12-----
   d|------------------------------------------
   a|------------------------------------------
   E|------------------------------------------

   e|-------------------------------
   b|---------12-------------12-----
   g|---10/12----12\10-10/12----12--
   d|-------------------------------
   a|-------------------------------
   E|-------------------------------


   ((bridge))

   And when you break it down yeah, to see through this sh*t
   e|---------------------------------------------
   b|---------------------------------------------
   g|---------------------------------------------
   d|---0-------------------3/5-------------------
   a|---0-----------------------------------------
   E|---0-------------------3/5-------------------

   You give yourself no reason to live throuuugh thiiis
   e|---------------------------------------------
   b|---------------------------------------------
   g|---------------------------------------------
   d|---0-------------------3/5---------------5/--
   a|---0-----------------------------------------
   E|---0-------------------3/5---------------5/--

   ((second solo w/ wah & flanger))

   e|---19-17----19-17----19-17----19-17----19^--
   b|---------18-------18-------18-------18------
   g|--------------------------------------------
   d|--------------------------------------------
   a|--------------------------------------------
   E|--------------------------------------------

   e|---8--7--5-----5-----------5^----------
   b|------------8-----8--6--5--------8-----
   g|------------------------------------7--
   d|---------------------------------------
   a|---------------------------------------
   E|---------------------------------------

   e|------------------------------------
   b|------------------------------------
   g|------------------------------------
   d|---3-2-3-5-3-3-3-2-3-5-3-2-3/5-5-5--
   a|------------------------------------
   E|------------------------------------

   e|---------------------------------
   b|---------------------------------
   g|---------------------------------
   d|---0--2--3--5--2--3--------------
   a|--------------------0--1--3---2--
   E|---------------------------------

   e|-----------------7-8---8-10---8-10----
   b|-----5-6-5-6-8-8-----8------8------8--
   g|---7----------------------------------
   d|--------------------------------------
   a|--------------------------------------
   E|--------------------------------------

   e|---13----13----13---15^15--13--
   b|-------------------------------
   g|-------------------------------
   d|-------------------------------
   a|-------------------------------
   E|-------------------------------


   e|-------------------------------------
   b|---------12----------12----------12--
   g|---10/12----12-10/12----12-10/12-----
   d|-------------------------------------
   a|-------------------------------------
   E|-------------------------------------

   e|----------------------------
   b|---------12-----------------
   g|---10/12----12-12-10----\7--
   d|----------------------------
   a|----------------------------
   E|----------------------------

   ((interlude-guitars tacet except for a bit of feedback at the end))

   Mama give me my medicine that makes me feel like a tall tree,
   Mama give me my medicine that makes me feel like a tall tree,
   Mama give me my medicine that makes me feel like a tall tree!!!

   ((third chorus))

   You're celebrating nothing
   e|--------------------------------------------
   b|--------------------------------------------
   g|--------------------------------------------
   d|---9----9----9----9----9/10---10---10---10--
   a|--------------------------------------------
   E|---9----9----9----9----9/10---10---10---10--
   |
   e|----------------------------------------------------
   b|----------------------------------------------------
   g|----------------------------------------------------
   d|---3/5---------5*-----------2/3-----3*--------------
   a|----------------------------------------------------
   E|---3/5-----------------5-5--2/3----------------3-3--
   |pm| |pm|

   And you feel A O Kay
   e|----------------------------------------------
   b|----------------------------------------------
   g|----------------------------------------------
   d|---10/12--12---12---12--12\10---10---10---10--
   a|----------------------------------------------
   E|---10/12--12---12---12--12\10---10---10---10--
   |
   e|---------------------------------------------------
   b|---------------------------------------------------
   g|---------------------------------------------------
   d|---/8----------------8*-----10----------------10\--
   a|---------------------------------------------------
   E|---/8-----------------------10----------------10\--

   You're celebrating nothing
   e|--------------------------------------------
   b|--------------------------------------------
   g|--------------------------------------------
   d|---9----9----9----9----9/10---10---10---10--
   a|--------------------------------------------
   E|---9----9----9----9----9/10---10---10---10--
   |
   e|----------------------------------------------------
   b|----------------------------------------------------
   g|----------------------------------------------------
   d|---3/5---------5*-----------2/3-----3*--------------
   a|----------------------------------------------------
   E|---3/5-----------------5-5--2/3---------------------
   |pm|

   And you feel
   e|-----------------------------------------------
   b|-----------------------------------------------
   g|-----------------------------------------------
   d|---10/12-12-12-12--12-12-12-12-12-12-12-12-12--
   a|-----------------------------------------------
   E|---10/12-12-12-12--12-12-12-12-12-12-12-12-12--
   |
   e|---------------------------------------------------
   b|---------------------------------------------------
   g|---------------------------------------------------
   d|---/8----------------------------------------------
   a|---------------------------------------------------
   E|---/8----------------------------------------------

   A O Kaaaaay!
   e|------------------------------------------------
   b|------------------------------------------------
   g|------------------------------------------------
   d|---/15--15-15-15-15-15-15-15-15-15-15-15-15-15--
   a|------------------------------------------------
   E|---/15--15-15-15-15-15-15-15-15-15-15-15-15-15--
   |
   e|------------------------------------------------
   b|------------------------------------------------
   g|------------------------------------------------
   d|---10---------10----------10-10-10-10-10-10-10--
   a|------------------------------------------------
   E|---10---------10----------10-10-10-10-10-10-10--

   then just play the main riff till some funny vocal
   & horn effects come in to end the song...

   That's it, I haven't seen any tabs of this on the net yet,
   So I figured I'd tab it out, hard as it was heh, hope you like it :)

   All words & music-Richard Patrick
   ęCopyright 1999 EMI APRIL MUSIC INC and HAPPY DITTIES FROM PARADISE
Comments