Filter - Welcome To The Fold Chords & Tabs

 

Welcome To The Fold Chords & Tabs

Filter Chords & Tabs

Version: 2 Type: Bass Tab 0 ratings
1 star 2 stars 3 stars 4 stars 5 stars
comments

Welcome To The Fold Bass Tab

Filter
"Welcome to the Fold" off the album "Title of Record"
Original Tab by Kevin Donovan
Tabbed by Doug B

Intro #1
---------------------------------------------------------
---------------------------------------------------------
--3\5-5-5-5-3--0-3\5-5-5-5-3--0-3\5-5-5-5-3--0-3\5-5-5/8-
---------------------------------------------------------
---------------------------------------------------------

Intro #2
---------------------------------------------------------
---------------------------------------------------------
--3\5-5-5-5-3--0-3\5-5-5-5-3--0-3\5-5-5-5-3--0-3-0-3-0-3-
---------------------------------------------------------
[ Tab from: http://www.guitartabs.cc/tabs/f/filter/welcome_to_the_fold_btab_ver_2.html ]
Chorus
---------------------------------------------------------
---------------------------------------------------------
-/5--------------/8------/10-----------------------------
----------/8---------------------------------------------

"And when you break yourself down...."
---------------------------------------------------------
---------------0-------------------------0---------------
--0-------------------------0----------------------------


Notes:
\ = hammer
/ = slide
*The verse is the same as the intro
*Play intro 1, then 2, then 1, then 2, then 1, etc
*Keep repeating chorus until Richard Patrick says "A...O...K!!!!" then  go 
back to verse
*During "Mama gimme my medicine...", there's no bass

OK this song is actually a fairly easy song to play.  It might look more 
difficult than it really is, so just stick with it.

Also, the part where he goes "And when you break yourself down...", you 
probably think I tabbed it wrong, but those ARE the correct tabs for it.
Comments