Filter - The Best Things Chords & Tabs

 

The Best Things Chords & Tabs

Filter Chords & Tabs

Version: 1 Type: Tab 0 ratings
1 star 2 stars 3 stars 4 stars 5 stars
comments

The Best Things Tab

   
От: for www.ultimate-guitar.com 
Кому: 
Тема: New Tabs
Дата: 4 июня 2000 г. 1:35

Filter, The Best Things.
 Tabbed by Flake, photonman17@hotmail.com.
  
band: Filter
song: The Best Things
album: Title of Record, Crow 3
tuning: drop D

Verse
D-5-5-5----5--5-3-3/8
A-5-5-5----5--5-3-3/8
D-5-5-5----5--5-3-3/8
[ Tab from: http://www.guitartabs.cc/tabs/f/filter/the_best_things_tab.html ]
Chorus (guitar 1)
D-0--10--8--6
A-0--10--8--6
D-0--10--8--6

guitar 2
D-----------
A-10-8---8-6
D-----------

bridge
G-----8-10-8-7-8
D-5-------------
A-5-------------
D-5-------------

3rd verse
D-5-5-5
A-5-5-5
D-5-5-5

breakdown (play each note 12x)
D-0-3-5-8
A-0-3-5-8
D-0-3-5-8 
:: Ultimate Guitar Archive :: 
http://www.ultimate-guitar.com 

Comments