Filter - Take A Picture Chords & Tabs

 

Take A Picture Chords & Tabs

Filter Chords & Tabs

Version: 4 Type: Tab 0 ratings
1 star 2 stars 3 stars 4 stars 5 stars
comments

Take A Picture Tab

От: for www.ultimate-guitar.com 
Кому: 
Тема: New Tabs
Дата: 4 июня 2000 г. 2:07

Filter, Take A Picture.
 Tabbed by Flake, photonman17@hotmail.com.
  
band: Filter
song: Take A Picture
album: Title of Record
tuning: standard

I saw them play this on Jay Leno. The live version is
a bit different from the studio version but they are
still pretty close
[ Tab from: http://www.guitartabs.cc/tabs/f/filter/take_a_picture_tab_ver_4.html ]
Intro/Verse
E-0--0--0--0--0--0--0-0--0--0--0--0-----------------
B-0--0--0--0--0--0--0-0--0--0--0--0-----------------
G-9--9--9--9--9--9--0-9--9--9--9--9---12-12-11-11-11
D-11-11-11-11-11-11-0-11-11-12-11-11--12-12-11-11-11
A-------------------------------------10-10-9--9--9-
E---------------------------------------------------

Chorus (I can't hear the rythm so I play along with the singing)
  Could you take my picture cuz I won't re-mem-ber
D---9----9----9--9--14-14---14--11--11--11--7---7
A---9----9----9--9--14-14---14--11--11--11--7---7
E---7----7----7--7--12-12---12--9---9---9---5---5 
:: Ultimate Guitar Archive :: 
http://www.ultimate-guitar.com 

Comments