Filter - So Cool Chords & Tabs

 

So Cool Chords & Tabs

Filter Chords & Tabs

Version: 1 Type: Tab 0 ratings
1 star 2 stars 3 stars 4 stars 5 stars
comments

So Cool Tab

          Group: FILTER
          Song:  So Cool
          Album: Short Bus

          Tabbed By: J. Bassett a.ka. "the FILTER freak"
          Questions or Comments...Jbass911@aol.com

          here it is...
          (Riff 1)
          ----------------------------------------
          ----------------------------------------
          ----------------------------------------
          0-0--4-4-4-5-5-5-5-5-5------------------
          2-2--4-4-4-5-5-5-5-5-5------------------
          2-2--4-4-4-5-5-5-5-5-5------------------

          (Riff 2)
          ----------------------------------------
          ----------------------------------------
          ----------------------------------------
          9--9-9-9-9-9-9-10-10-10-10-10-10-10-
          7--7-7-7-7-7-7---8---8---8---8--8---8---8-
          7--7-7-7-7-7-7---8---8---8---8--8---8---8-
[ Tab from: http://www.guitartabs.cc/tabs/f/filter/so_cool_tab.html ]
          (Riff 3)
          ----------------------------------------
          ----------------------------------------
          ----------------------------------------
          5-5-5-5-6-6-6-5-5-5---------------------
          5-5-5-5-4-4-4-3-3-3---------------------
          5-5-5-5-4-4-4-3-3-3---------------------

          (Riff 4)-chorus-
          ----------------------------------------
          ----------------------------------------
          ------5-5-4-4---------------------------
          0-0-4-5-5-5-5---------------------------
          2-2-5-5-5-5-5---------------------------
          2-2-4-5-5-5-5---------------------------

          (Riff 5)-coda-
          ----------------------------------------
          ----------------------------------------
          ----5-5-4-4-----------------------------
          0-4-5-5-5-5-----------------------------
          2-5-5-5-5-5-----------------------------
          2-4-5-5-5-5-----------------------------          Order of Riffs and Repeation...
          (each one time unless noted)
          Riff 1(4x)
          Riff 2
          Riff 3
          Riff 2
          Riff 3
          Riff 4(4x)
          Riff 1(9x)
          Riff 2
          Riff 3
          Riff 2
          Riff 3
          Riff 4(4x)
          Riff 1(7x)
          Riff 5(3x)...and fade...this is it all that is
          needed is the timing...have fun!!!
Comments