Filter - I Will Lead You Chords & Tabs

 

I Will Lead You Chords & Tabs

Filter Chords & Tabs

Version: 1 Type: Tab 0 ratings
1 star 2 stars 3 stars 4 stars 5 stars
comments

I Will Lead You Tab

   
tunning (low to high) d a d g b e

the song is is done correctly without the fills that geno does.

Intro(Guitar only)              Then Bass comes in
e------------------------------ e------------------------------|
b------------------------------ b------------------------------|
g------------------------------ g------------------------------|
d------------------------------ d-0-3-5-0-3-5-0-3-5-0-3-5-0000-|
a------------------------------ a-0-3-5-0-3-5-0-3-5-0-3-5-0000-|
d-0-3-5-0-3-5-0-3-5-0-3-5-0000- d-0-3-5-0-3-5-0-3-5-0-3-5-0000-|
            (2 times)
[ Tab from: http://www.guitartabs.cc/tabs/f/filter/i_will_lead_you_tab.html ]
 fisrt verse is just bass but do this palm muted for the second verse
e--------------------------------|
b--------------------------------|
g--------------------------------|
d-0-3-5-0-3-5-0-3-5-0-3-5-0000---|
a-0-3-5-0-3-5-0-3-5-0-3-5-0000---|
d-0-3-5-0-3-5-0-3-5-0-3-5-0000---|

Pre chorus (listen to cd for rythym)
e---------------------------------------------------------------------|
b---------------------------------------------------------------------|
g---------------------------------------------------------------------|
d----------------10------------5----------------10--------5-0-5-0-5-7-|
a----------------8-------------3----------------8---------3-0-3-0-3-5-|
d-777-000-111-8888-777-000-33333-777-000-111-8888-777-000-3-0-3-0-3-5-|

chorus
e---------------------------------|
b---------------------------------|
g---------------------------------|
d-0000-8888-00-3-5-00-3-5-0-8888--| 2x
a-0000-8888-00-3-5-00-3-5-0-8888--|
d-0000-8888-00-3-5-00-3-5-0-8888--|

no guitar in the interlude. that's the song
Comments