Filter - God Damn Me Chords & Tabs

 

God Damn Me Chords & Tabs

Filter Chords & Tabs

Version: 1 Type: Tab 0 ratings
1 star 2 stars 3 stars 4 stars 5 stars
comments

God Damn Me Tab

   
song:  God Damn Me
band:  Filter
Album: The Amalgamut
Tuning: Drop-D


tabbed by: 'Nufan' - Peter Tom Takaro 
problems & feedback on nouseforaname@freemail.hu


keys,               

/   = slide up
\   = slide down
x   = strum muted strings / mute string
... = played several times
h   = hammer on
p   = pull off
~   = let ring

****Intro/Verse****

Acoustic Guitar
playing this chord...sometimes going up to
E|--x...---------------------------x--x--x----------|
B|--3...---------------------------5--7--7----------|
G|--2...---------------------------4--7--7----------|
D|--0...---------------------------0--0--0----------|
A|--0...---------------------------0--0--0----------|
D|--0...---------------------------0--0--0----------|

****Chorus****

Acoustic Guitar

E|------------------------------------------------------------------------------|
B|--7/8--8--8-8---------------------------------------------7-7-7--7-7-7--7-7-7-|
G|--x/x--x--x-x-6-6-6/7--7--7-7-7--7-7-7--6/7--7--7-7-7----7--7-7--7-7-7--7-7-7-|
D|--4/5--5--5-5-x-x-x/x--x--x-x-x--x-x-x--6/7--7--7-7-7---7---7-7--7-7-7--7-7-7-|
A|--------------4-4-4/5--5--5-5-5--5-5-5--4/5--5--5-5-5--5----5-5--5-5-5--5-5-5-|
D|------------------------------------------------------------------------------|
[ Tab from: http://www.guitartabs.cc/tabs/f/filter/god_damn_me_tab.html ]
Guitar w/distortion
plays these 2 chords
E|--------------------------------------------------|
B|--------------------------------------------------|
G|--7...--------------------------------------------|
D|--7...-------------------0...---------------------|
A|--5...-------------------0...---------------------|
D|--5...-------------------0...---------------------|


****Bridge 1****

E|--------------------------------------------------|
B|--7h8p7------------7h8p7--------------------------|
G|---------2--4-4-----------6--7--9--11-11----------|
D|--------------------------x--x--x---x--x----------|
A|--------------------------4--5--7---9--9----------|
D|--------------------------------------------------|

****Bridge 2****

'nothing changes...'

Guitar w/distortion x3
E|--------------------------------------------------|
B|--------------------------------------------------|
G|--4...-------------------7...---------------------|
D|--4...-------------------7...---------------------|
A|--2...-------------------5...---------------------|
D|--2...-------------------5...---------------------|

last time
E|--------------------------------------------------|
B|--------------------------------------------------|
G|--4...7...11...-----------------------------------|
D|--4...7...11...0-~--------------------------------|
A|--2...5...-9...0-~--------------------------------|
D|--2...5...-9...0-~--------------------------------|

****Outro****

Acoustic guitar plays chorus part



that's it...enjoy!
Comments