Filter - Gerbil Chords & Tabs

 

Gerbil Chords & Tabs

Filter Chords & Tabs

Version: 2 Type: Bass Tab 0 ratings
1 star 2 stars 3 stars 4 stars 5 stars
comments

Gerbil Bass Tab

Gerbil
by Filter
from the album Short Bus

E string tuned to D
/=hammer on or slide

during verses play this riff
||.-----------------------------------------------------|
||.-----------------------------------------------------|
||------------------------------------------------------|
||-0-3-3-0-3-0-0-0-0-0-3-3-0-3-0-0-0-0-0-3-3-0-3-0-0-0-0|

|----------------.||
|----------------.||
|-----------------||
|-0-3-3-0-6-6-6-6-||
[ Tab from: http://www.guitartabs.cc/tabs/f/filter/gerbil_btab_ver_2.html ]
"hey you..."
|-------------------------------------------------------------|
|-------------------------------------------------------------|
|3/5-5-5-5-5-5-5-3-3-3-3-3-3-3-3-2-2-2-2-2-2-2-2-1-1-1--------|
|------------------------------------------------------3-3-3-3|

then play this
|-----------------------|
|-----------------------|
|-----------------------|
|0-0-3-0-0-3-0-0-3-0-0-6|


I am pretty sure this is right. I used a pick and for most of 
the song I used the up-down-up-down picking pattern. If you have 
any questions or comments, send e-mail to hubka@hevanet.com 

Comments