Filter - Cancer Chords & Tabs

 

Cancer Chords & Tabs

Filter Chords & Tabs

Version: 1 Type: Tab 0 ratings
1 star 2 stars 3 stars 4 stars 5 stars
comments

Cancer Tab

   
От: for www.ultimate-guitar.com 
Кому: 
Тема: New Tabs
Дата: 4 июня 2000 г. 1:53

Filter, Cancer.
 Tabbed by Flake, photonman17@hotmail.com.
  
band: Filter
song: Cancer
album: Title of Record
tuning: bass-drop D, guitar-either standard or drop D

bass
G--------------------------------------------------------
D--------------------------------------------------------
A--------------------------------------------------------
D-0-5-7-0-7-9-0-5-7-3-3-3-3--0-5-7-0-7-9-0-5-7-3-3-3-3/8

intro/post-chorus 1
D-0---------------
A-----8---0-1--0-1
D-----------------
[ Tab from: http://www.guitartabs.cc/tabs/f/filter/cancer_tab.html ]
chorus 1 & 2 (standard tuning)
D-8---10--6-5---12-12-11-12-12--3--3-5
A-8---10--6-5-------------------3--3-5
E-6---8---4-3-------------------1--1-3

chorus 1 & 2 (drop D tuning)
D-8---10--6-5--12-12-11-12-12-3--3-5
A-8---10--6-5-----------------3--3-5
D-8---10--6-5-----------------3--3-5

"I the scum of the Earth..."
D-12-10-12-12
A------------
D------------

chorus 3 (standard tuning)
D-8---10--6-5--8--3--3-5
A-8---10--6-5--8--3--3-5
E-6---8---4-3--6--1--1-3

chorus 3 (drop D tuning)
D-8---10--6-5--8--3--3-5
A-8---10--6-5--8--3--3-5
D-8---10--6-5--8--3--3-5

wah wah outro
D-8-10-10-10-10-10-10-10-8-10-12-12--8-10-10-10-10-10-10-10-3-1-0
A----------------------------------------------------------------
D----------------------------------------------------------------

 
:: Ultimate Guitar Archive :: 
http://www.ultimate-guitar.com 

Comments