Filicide - Faces Chords & Tabs

 

Faces Chords & Tabs

Filicide Chords & Tabs

Version: 1 Type: Tab 0 ratings
1 star 2 stars 3 stars 4 stars 5 stars
comments

Faces Tab

Artist:FILICIDE
Song:Faces

INTRO:

E]-------------------------------------------------------------------
B]-------------------------------------------------------------------
G]-------------------------------------------------------------------
D]-53-44-33---55-44-33---55-44-33---55-44-33333333-------------------
A]-55-44-33---55-44-33---55-44-33---55-44-33333333-------------------
E]-33-22-11---55-44-33---55-44-33---55-44-33333333-------------------

PRE-VERSE:

E]-------------------------------------------------------------------
B]-------------------------------------------------------------------
G]-------------------------------------3-----------------------------
D]-222222222222-3-5-1-333333333333-3-5-3-222222222222----------------
A]-222222222222-3-5-1-333333333333-3-5-3-222222222222----------------
E]-000000000000-3-3-1-111111111111-3-3---000000000000----------------
   repeat 4x

VERSE:
[ Tab from: http://www.guitartabs.cc/tabs/f/filicide/faces_tab.html ]
E]-------------------------------------------------------------------
B]-------------------------------------------------------------------
G]-------------------------------------3-----------------------------
D]-222222222222-3-5-1-333333333333-3-5-3-222222222222----------------
A]-222222222222-3-5-1-333333333333-3-5-3-222222222222----------------
E]-000000000000-3-3-1-111111111111-3-3---000000000000----------------
  [____pm______]     [_____pm_____]     [_____pm_____] repeat 4x

CHORUS:

E]-------------------------------------------------------------------
B]-------------------------------------------------------------------
G]-------------------------------------------------------------------
D]-555-77-5-44-2-4---------------------------------------------------
A]-555-77-5-44-2-4---------------------------------------------------
E]-333-55-3-22-2-2---------------------------------------------------
   repeat 4x

BRIDGE:

E]-------------------------------------------------------------------
B]-------------------------------------------------------------------
G]-------------------------------------------------------------------
D]-55-44-33~~~---55-44-33~~~---55-44-33~~~---55-44-33333333----------
A]-55-44-33~~~---55-44-33~~~---55-44-33~~~---55-44-33333333----------
E]-33-22-11~~~---33-22-11~~~---33-22-11~~~---33-22-11111111----------

1.INTRO
2.PRE-VERSE
3.VERSE
4.CHORUS
5.PRE-VERSE
6.VERSE
7.CHORUS
8.BRIDGE
9.CHORUS

====
Comments