Filicide - Dysinforia Chords & Tabs

 

Dysinforia Chords & Tabs

Filicide Chords & Tabs

Version: 1 Type: Tab 0 ratings
1 star 2 stars 3 stars 4 stars 5 stars
comments

Dysinforia Tab

Artist:FILICIDE
Song:Dysinforia

*-Repeat 8x

Intro/Bridge/Outro
    
E]-----------------------------------------------
B]-----------------------------------------------
G]-----------------------------------------------
D]-9---------7----------5----------5--------5\---
A]-7---------5----------3----------3--------3\---
E]-----------------------------------------------
                                      repeat twice
Verse

E]-----------------------------------------------
B]-----------------------------------------------
G]---9----9----7---7-----5---5--5--5--5----------
D]-9---9-9-9-7--7-7--7-5--5-5-5--5--5--5---------
A]-7---------5---------3----------3--3-----------
E]-----------------------------------------------
                                       repeat twice
Pre-Chorus
[ Tab from: http://www.guitartabs.cc/tabs/f/filicide/dysinforia_tab.html ]
E]-----------------------------------------------
B]-----------------------------------------------
G]-9*-7*-5*-5---5---5----------------------------
D]-9*-7*-5*--5---5---5---------------------------
A]-7*-5*-3*---3---3------------------------------
E]-----------------------------------------------
                                       repeat twice
Chorus

E]-----------------------------------------------
B]-----------------------------------------------
G]-----------------------------------------------
D]-7xx7---5xx5---7xx7---2-2-2-2------------------
A]-7xx7---5xx5---7xx7---2-2-2-2------------------
E]-5xx5---3xx3---5xx5---2-2-2-2------------------
                                       repeat twice

E]-----------------------------------------------
B]-----------------------------------------------
G]-----------------------------------------------
D]-7*--5*--7*--2-2-2-2---------------------------
A]-7*--5*--7*--2-2-2-2---------------------------
E]-5*--3*--5*--2-2-2-2---------------------------

1.INTO
2.VERSE
3.PRE-CHORUS
4.CHORUS
5.VERSE
6.PRE-CHORUS
7.CHORUS
8.VERSE
9.PRE-CHORUS
10.CHORUS
11.BRIDGE
12.PRE-CHORUS
13.CHORUS
14.OUTRO
====
Comments