Filicide - Dysinforia Chords & Tabs

 

Dysinforia Chords & Tabs

Filicide Chords & Tabs

Version: 1 Type: Bass Tab 0 ratings
1 star 2 stars 3 stars 4 stars 5 stars
comments

Dysinforia Bass Tab

Artist: FILICIDE
Song: Dysinforia

Main Riff(let them ring):

G]------------------|(5)---------(5)----------(9)-------|
D]------------------|-----------------------------------|
A]-7--5--3--3-3-5---|----(3)-(3)-----(3)-(3)------(3)---|
E]------------------|----------------------------------|

Verse Alternation #1:
[ Tab from: http://www.guitartabs.cc/tabs/f/filicide/dysinforia_btab.html ]
G]---------------------------------------------------5------5-----5-----|
D]-----------------------------------------------------3-3----3-3---3---|
A]-7-7-7-7-7-7-7-7--5-5-5-5-5-5-5-5-3-3-3-3-3-3-3-3---------------------|
E]----------------------------------------------------------------------|

Verse Alteration #2:

G]----9--------9------7-------7-----5---------5----5------5-------5------5---|
D]-----------9--------------7--------------5---------------------------------|
A]-7-----7-7-------5----5-5-----3------3-3------------3-3----3-3----3-3----3-|
E]---------------------------------------------------------------------------|

Chorus:

G]-------------------------------------------------------|
D]-------------------------------------------------------|
A]-------------------------------------------------------|
E]-5-5-555-3-3-333-1-1-111-0-1-2-3-----------------------|====
Comments