Fightstar - Until Then Chords & Tabs

 

Until Then Chords & Tabs

Fightstar Chords & Tabs

Version: 1 Type: Bass Tab 0 ratings
1 star 2 stars 3 stars 4 stars 5 stars
comments

Until Then Bass Tab

~ - let ring
\ - slide down
(n) - number of times note/bar is played

Intro
G|--------------------------------------|
D|--------------------------------------|
A|--------------------------------------|
D|-5----1---05----1---05----1---05----1-|

Verse
G|---------------------------------------|
D|---------------------------------------|
A|---------------------------------------| (times 6)
D|-05----1---05----1---05----1---05----1-|

Chorus
G|--------------------------------------|
D|--------------------------------------|
A|--7-(16x)--3-(16x)--------------------| (times 2)
D|--------------------5-(16x)--9-(16x)--|

Bass solo
G|--------------------------------------|
D|--------------------------------------|
A|--------------------------------------|
D|-5----1---05----1---05----1---05----1-|

G|---------------------------------------|
D|---------------------------------------|
A|---------------------------------------|
D|-05----1---05----1---05----1---05----1-|
[ Tab from: http://www.guitartabs.cc/tabs/f/fightstar/until_then_btab.html ]
G|---------------------------------------------------|
D|---------------------------------------------------|
A|---------------------------------------------------|
D|--12c-(16x)--13-(16x)--14-(16x)--15-(8x)--17-(8x)--|

Verse
G|--------------------------------------|
D|--------------------------------------|
A|--------------------------------------|
D|-5----1---05----1---05----1---05----1-|

Chorus
G|--------------------------------------|
D|--------------------------------------|
A|--7-(16x)--3-(16x)--------------------| (times 2)
D|--------------------5-(16x)--9-(16x)--|

Bridge

G|----------|
D|---REST---|
A|----------|
D|----------|

G|--------------------------|
D|--------------------------|
A|--------------------------| (times 2)
D|---5c---10c---3c---12c----|

G|----------------------------|
D|----------------------------|
A|----------------------------|
D|---5c---10c---3c---12c---0~-|

Break
G|---------------------|
D|---------------------|
A|---------------------| (times 4)
D|-9----5----9----5----|

Outro
G|---------------------------------------|
D|---------------------------------------|
A|---------------------------------------| (times 6)
D|---0-(16x)--7-(16x)--9-(16x)--5-(16x)--|

G|------|
D|------|
A|------|
D|--0~--|
Comments