Fightstar - Speak Up Chords & Tabs

 

Speak Up Chords & Tabs

Fightstar Chords & Tabs

Version: 1 Type: Tab 0 ratings
1 star 2 stars 3 stars 4 stars 5 stars
comments

Speak Up Tab

   
This song is great, i hope this will do!

I duno the twangy bits, but am makin a guess :P

Verse 1

N/C, then pull seventh E string down, do this 4 times then play>>

e|---------|---------|---------|-------------|
B|-3-3-3-3-|-5-5-5-5-|-7-7-7-7-|-10-10-10-10-|
G|-3-3-3-3-|-5-5-5-5-|-7-7-7-7-|-10-10-10-10-|
D|-5-5-5-5-|-7-7-7-7-|-9-9-9-9-|-12-12-12-12-|
A|-5-5-5-5-|-7-7-7-7-|-9-9-9-9-|-12-12-12-12-|
E|-3-3-3-3-|-5-5-5-5-|-7-7-7-7-|-10-10-10-10-|

Do this twice

Bridge

e|-0*-|-------------|-------------|
B|-0*-|-7-7-7-7-7-7-|-3-3-3-3-3-3-|
G|-0*-|-7-7-7-7-7-7-|-3-3-3-3-3-3-|  * = let ring
D|-0*-|-9-9-9-9-9-9-|-5-5-5-5-5-5-|
A|-0*-|-9-9-9-9-9-9-|-5-5-5-5-5-5-|
E|-0*-|-7-7-7-7-7-7-|-3-3-3-3-3-3-| play this twice 

then this
e|-7-7-8-8-9-9-8-8-7-7-8-8-9-9-8-8-|
B|---------------------------------|
G|---------------------------------|
D|---------------------------------|
A|---------------------------------|
E|---------------------------------|

Chorus
[ Tab from: http://www.guitartabs.cc/tabs/f/fightstar/speak_up_tab.html ]
e|-7-7-7-7-|-10-10-10-10-|-3-3-3-3-3-3-3-3-|
B|-7-7-7-7-|-10-10-10-10-|-3-3-3-3-3-3-3-3-|
G|-7-7-7-7-|-10-10-10-10-|-3-3-3-3-3-3-3-3-|
A|-9-9-9-9-|-12-12-12-12-|-5-5-5-5-5-5-5-5-|
D|-9-9-9-9-|-12-12-12-12-|-5-5-5-5-5-5-5-5-|
E|-7-7-7-7-|-10-10-10-10-|-3-3-3-3-3-3-3-3-|

No guitar during-
How do you know.
How do you notice...

e|-7-7-7-7-|-10-10-10-10-|-3-3-3-3-3-3-3-3-|
B|-7-7-7-7-|-10-10-10-10-|-3-3-3-3-3-3-3-3-|
G|-7-7-7-7-|-10-10-10-10-|-3-3-3-3-3-3-3-3-|
A|-9-9-9-9-|-12-12-12-12-|-5-5-5-5-5-5-5-5-|
D|-9-9-9-9-|-12-12-12-12-|-5-5-5-5-5-5-5-5-|
E|-7-7-7-7-|-10-10-10-10-|-3-3-3-3-3-3-3-3-|

e|-7'-7'-7'-7'-|-10'-10'-10'-10'-|-3*-|
B|-7'-7'-7'-7'-|-10'-10'-10'-10'-|-3*-|
G|-7'-7'-7'-7'-|-10'-10'-10'-10'-|-3*-|
A|-9'-9'-9'-9'-|-12'-12'-12'-12'-|-5*-| ' = half mute
D|-9'-9'-9'-9'-|-12'-12'-12'-12'-|-5*-|
E|-7'-7'-7'-7'-|-10'-10'-10'-10'-|-3*-|

e|-7-7-|-3-3-|-10*-|
B|-7-7-|-3-3-|-10*-|
G|-7-7-|-3-3-|-10*-|
A|-9-9-|-5-5-|-12*-|
D|-9-9-|-5-5-|-12*-|
E|-7-7-|-3-3-|-10*-|

after this there is another verse, bridge, and then a chorus.
I can't work out the end though.
Also do remember there is 2 guitars palyin in thissong :P

I hope you can work the rest of the song out.
Any comments or questions, mail me. just_ciaran@hotmail.co.uk
Comments