Fightstar - Paint Your Target Chords & Tabs

 

Paint Your Target Chords & Tabs

Fightstar Chords & Tabs

Version: 5 Type: Tab 0 ratings
1 star 2 stars 3 stars 4 stars 5 stars
comments

Paint Your Target Tab

m - palm mute
\ - slide up
/ - slide down
(n) - number of times note/bar is played

<<2nd Guitar Part>>
<>

INTRO
e|---------------------------------|
B|---------------------------------|
G|----------Rest While-------------|
D|-------1st Guitar Plays----------|
A|---------------------------------|
D|---------------------------------|


e|-----------------------------------------|
B|-----------------------------------------|
G|-4-------888888--13--------11------------|
D|-2-------xxxxxx--11---------7--------0~--|
A|-2-(x26)-666666--11-(x12)---7-(x12)--0~--|
D|-2---------------11---------7--------0~--|

e|---------------------------------------|
B|---------------------------------------|
G|-4-------888888--13---------9----------|
D|-2-------xxxxxx--11---------7----------|
A|-2-(x26)-666666--11-(x12)---7-(x12)----|
D|-2---------------11---------7----------|

VERSE 1
e|---------------------------------|
B|---------------------------------|
G|----------Rest While-------------|
D|-------1st Guitar Plays----------|
A|---------------------------------|
D|---------------------------------|

BRIDGE
e|-------------------------------------------0---------------0--------|
B|--------------------------------------------------------------------|
G|-111111111111111111111111111111--------4-----4---4-----4-----4---4--|
D|--x-x-x-x-x-x-x-x-x-x-x-x-x-x-x------2---2-----2-----2---2-----2----| (Times 2)
A|--9-9-9-9-9-9-9-9-9-9-9-9-9-9-9----4---------------4----------------|
D|--------------------------------------------------------------------|
                                     m m m m   m m m m m m m   m m m

CHORUS
e|---------------------------------------|
B|---------------------------------------|
G|------4-------13------11-------9-------|
D|-0~---2-------11-------9-------7-------|
A|-0~---2-(x16)-11-(x16)-9-(x16)-7-(x16)-|
D|-0~---2-------11-------9-------7-------|

e|-----------------------------------|
B|-----------------------------------|
G|--4-------13------11-------9-------|
D|--2-------11-------9-------7-------|
A|--2-(x16)-11-(x16)-9-(x16)-7-(x16)-|
D|--2-------11-------9-------7-------|

VESRE 2 (This is actually a third guitar part)
e|-------------------|
B|-------------------|
G|-------------------| these are the chords
D|-2m---11m--7m------| just work out the rhythm
A|-2m---11m--7m------|
D|-2m---11m--7m------| (Times 2) 
[ Tab from: http://www.guitartabs.cc/tabs/f/fightstar/paint_your_target_tab_ver_5.html ]
BRIDGE
e|-------------------------------------------0---------------0--------|
B|--------------------------------------------------------------------|
G|-111111111111111111111111111111--------4-----4---4-----4-----4---4--|
D|--x-x-x-x-x-x-x-x-x-x-x-x-x-x-x------2---2-----2-----2---2-----2----| (Times 2)
A|--9-9-9-9-9-9-9-9-9-9-9-9-9-9-9----4---------------4----------------|
D|--------------------------------------------------------------------|
                                     m m m m   m m m m m m m   m m m

CHORUS
e|---------------------------------------|
B|---------------------------------------|
G|------4-------13------11-------9-------|
D|-0~---2-------11-------9-------7-------|
A|-0~---2-(x16)-11-(x16)-9-(x16)-7-(x16)-|
D|-0~---2-------11-------9-------7-------|

e|-----------------------------------|
B|-----------------------------------|
G|--4-------13------11-------9-------|
D|--2-------11-------9-------7-------|
A|--2-(x16)-11-(x16)-9-(x16)-7-(x16)-|
D|--2-------11-------9-------7-------|

MIDDLE
e|-------------------------------------------------------------------------|
B|-------------------------------------------------------------------------|
G|-------------------------------------------------------------------------|
D|--22222222--222\3/0--0000000--000\3/2-22222222--222\3/0--0000000--000\3-2|
A|--22222222--222\3/0--0000000--000\3/2-22222222--222\3/0--0000000--000\3-2|
D|--22222222--222\3/0--0000000--000\3/2-22222222--222\3/0--0000000--000\3-2|
    mmmmmmmm  mm       mmmmmmm  mm      mmmmmmmm  mm       mmmmmmm  mm

MIDDLE 2
e|---------------------------------|
B|---------------------------------|
G|----------Rest While-------------|
D|-------1st Guitar Plays----------|
A|---------------------------------|
D|---------------------------------|

e|-----------------------------------|
B|-----------------------------------|
G|--4-------13------11-------9-------|
D|--2-------11-------9-------7-------|
A|--2-(x16)-11-(x16)-9-(x16)-7-(x16)-|
D|--2-------11-------9-------7-------|

OUTRO
e|-----------------------------------|
B|-----------------------------------|
G|--4-------13------11-------9-------|
D|--2-------11-------9-------7-------|
A|--2-(x16)-11-(x16)-9-(x16)-7-(x16)-|
D|--2-------11-------9-------7-------|

e|-----------------------------------|
B|-----------------------------------|
G|--4-------13------11-------9~------|
D|--2-------11-------9-------9~------|
A|--2-(x16)-11-(x16)-9-(x16)-7~------|
D|--2-------11-------9-------7~------|
Comments