Fightstar - Paint Your Target Chords & Tabs

 

Paint Your Target Chords & Tabs

Fightstar Chords & Tabs

Version: 4 Type: Tab 0 ratings
1 star 2 stars 3 stars 4 stars 5 stars
comments

Paint Your Target Tab

-------------------------------------------------------------------------------
			     PAINT YOUR TARGET - Fightstar
-------------------------------------------------------------------------------
Tabbed by: Jay Lee 
Email:     JayLee1459@hotmail.com

Tuning: Drop D

I dont think this tab is perfect, but i know its very close and much
better than the other stuff people have been coming up with for this tab.

LISTEN TO THE SONG TO FIGURE OUT THE RHYTHEM!!

                                  Intro

Guitar 1 (Clean) 

e|-----------0---------------0-----------------0---------------0-------------|
B|-------7---------------7---------------------------------------------------|
G|-----4---4---4---4---4---4---4---4-------4-----4---4-----4-----4---4-------|
D|---6-----------6---6-----------6-------2---2-----2-----2---2-----2---------|
A|-------------------------------------4---------------4---------------------|
D|---------------------------------------------------------------------------|

e|-----------0---------------0-----------------0-----------------------------|
B|-------7---------------7---------------------------------------------------|
G|-----4---4---4---4---4---4---4---4-------4-----4---4-----------------------|
D|---6-----------6---6-----------6-------2---2-----2-------------------------|
A|-------------------------------------4---------------4---------------------|
D|---------------------------------------------------------------------------|

Guitar 2 (Clean)

e|---------------------------------------------------------------------------|
B|---------------------------------------------------------------------------|
G|---------------------------------------------------------------------------|
D|--6----------6/9------------------x2---------------------------------------|
A|---------------------------------------------------------------------------|
D|------------------11-------------------------------------------------------|

Guitar 1 (Distortion)

e|---------------------------------------------------------------------------|
B|---------------------------------------------------------------------------|
G|---4--8--13--9-----4--8--13--9---------------------------------------------|
D|---2--x--11--7--0--2--x--11--7---------------------------------------------|
A|---2--6--11--7--0--2--6--11--7---------------------------------------------|
D|---2-----11--7--0--2-----11--7---------------------------------------------|

Guitar 2 (Distortion)

e|---------------------------------------------------------------------------|
B|---------------------------------------------------------------------------|
G|-----6--2------------------------------------------------------------------|
D|--2--6--2------------------------------------------------------------------|
A|--2--4--0------------------------------------------------------------------|
D|--2------------------------------------------------------------------------|


                                  Verse 1

Guitar 1 (Clean)<<[ Tab from: http://www.guitartabs.cc/tabs/f/fightstar/paint_your_target_tab_ver_4.html ]
e|---------------------------------------------------------------------------|
B|---------------------------------------------------------------------------|
G|--2-2-2-2-2-2-2----2-2-2---------------------------------------------------|
D|--2-2-2-2-2-2-2----2-2-2---------------------------------------------------|
A|--0-0-0-0-0-0-0----0-0-0---------------------------------------------------|
D|---------------------------------------------------------------------------|
    ...........PM..........
                 
Guitar 1 (Distortion Then Clean)
                
e|--0-----------0---------------0--------0----------0------------------------|
B|--7------------------------------------7-----------------------------------|
G|--4-------4-----4---4-----4-----4---4--4------4-----4---4------------------|
D|--6-----2---2-----2-----2---2-----2----6----2---2-----2--------------------|
A|------4---------------4-------------------4---------------4----------------|
D|---------------------------------------------------------------------------|

Guitar 2 (Distortion Then Clean)

e|---------------------------------------------------------------------------|
B|---------------------------------------------------------------------------|
G|--11--------9--------------------------------------------------------------|
D|--9---------7----x2--------------------------------------------------------|
A|--9---------7--------------------------------------------------------------|
D|--9---------7--------------------------------------------------------------|


                                 Chorous

Guitar 1 (Distortion)

e|---------------------------------------------------------------------------|
B|---------------------------------------------------------------------------|
G|-----4--13-11--9--4--13--11--9---------------------------------------------|
D|--0--2--11-9---7--2--11--9---7---------------------------------------------|
A|--0--2--11-9---7--2--11--9---7---------------------------------------------|
D|--0--2--11-9---7--2--11--9---7---------------------------------------------|

Guitar 2 (Distortion)

e|---------------------------------------------------------------------------|
B|---------------------------------------------------------------------------|
G|--------6--4--2-----6--4--2------------------------------------------------|
D|--0--2--6--4--2--2--6--4--2------------------------------------------------|
A|--0--2--4--2--0--2--4--2--0------------------------------------------------|
D|--0--2-----------2---------------------------------------------------------|

                                  Verse 2

                                  Chorous

                                  Bridge

Guitar 1 (Distortion)

e|---------------------------------------------------------------------------|
B|---------------------------------------------------------------------------|
G|---------------------------------------------------------------------------|
D|--2-2-2-2-2-2-2---2-2-2--2h3-3---0--0-0-0-0-0-0-0--0-0-0--2h3-3------------|
A|--2-2-2-2-2-2-2---2-2-2--2h3-3---0--0-0-0-0-0-0-0--0-0-0--2h3-3------x2----|
D|--2-2-2-2-2-2-2---2-2-2--2h3-3---0--0-0-0-0-0-0-0--0-0-0--2h3-3------------|
    ........PM...........          .........PM............

Guitar 2 (Distortion)

e|---------------------------------------------------------------------------|
B|---------------------------------------------------------------------------|
G|------------------------4/5-5---------------------------4/5-5--------------|
D|--2-2-2-2-2-2-2--2-2-2--x/x-x--0--0-0-0-0-0-0-0--0-0-0--x/x-x--------------|
A|--2-2-2-2-2-2-2--2-2-2--2/3-3--0--0-0-0-0-0-0-0--0-0-0--2/3-3--------------|
D|--2-2-2-2-2-2-2--2-2-2---------0--0-0-0-0-0-0-0--0-0-0---------------------|
    ........PM..........         ..............PM.......

Only one guitar in this part: (clean)

e|--0--0--0--------------0-------------------------------------------------------|
B|--0--0--0--------------0-------------------------------------------------------|
G|--4--6--4--------------2-------------------------------------------------------|
D|--2--6--4--distortion:-2-------------------------------------------------------|
A|--2--4--2--------------0-------------------------------------------------------|
D|--2--x--x--------------x-------------------------------------------------------|



the ending is exactly the same as the chorous but its repeated twice and on the
second time the guitars are palm muted untilt the very last note, thenthey are
played.

Big shout out to Mike, Glyn, Jonny an the girl who flashed at me in the pit
during fightstar in liverpool June 3rd.....that gig kicked ass! and it was all
of you guys!! 

===============================================================================
Comments