Fightstar - Paint Your Target Chords & Tabs

 

Paint Your Target Chords & Tabs

Fightstar Chords & Tabs

Version: 4 Type: Bass Tab 0 ratings
1 star 2 stars 3 stars 4 stars 5 stars
comments

Paint Your Target Bass Tab

\ - slide down
/ - slide down
h - hammer-on
~ - let ring
(n) - number of times note/bar is played

Intro
G|------------------------------|
D|------------------------------|
A|------------REST--------------|
D|------------------------------|

G|------------------------------|
D|------------------------------|
A|-11~---11~---14\4~---4~-------|
D|------------------------------|

G|--------------------------------|
D|--------------------------------|
A|--------------------------------|
D|-2-(x32)--11-(x12)-13\-7-(12x)--|

G|-----------------------------------|
D|-----------------------------------|
A|-----------------------------------|
D|-0~-2-(x32)--11-(x12)-13\-7-(16x)--|

Verse
G|------------------------------------------------------------|
D|------------------------------------------------------------|
A|------------------------------------------------------------| [11's not 1's!]
D|-222222--222--222222--222--111111111111--111111--777777-777-|

G|------------------------------------------------------------|
D|------------------------------------------------------------|
A|------------------------------------------------------------| 
D|-222222--222--222222--222--111111111111--111111--777777-777-|

Pre-Chorus
G|-----------------------|
D|-------------9-7-------|
A|-----------5-----5-7---|
D|-2-(16x)---------------|
I'm just not sure...

G|-------------------------|
D|-------------9-7---------|
A|-----------5-----5-7-----|
D|-2-(16x)-------------0~--|

Chorus
G|---------------------------------------------|
D|---------------------------------------------|
A|---------------------------------------------| (Times 2)
D|-2-(16x)--11-(x12)--13\-9-(12x)--16\-7-(16x)-|

[ Tab from: http://www.guitartabs.cc/tabs/f/fightstar/paint_your_target_btab_ver_4.html ]
Verse
G|------------------------------------------------------------|
D|------------------------------------------------------------|
A|------------------------------------------------------------| (11's not 1's!)
D|-222222--222--222222--222--111111111111--111111--777777-777-|

G|------------------------------------------------------------|
D|------------------------------------------------------------|
A|------------------------------------------------------------| 
D|-222222--222--222222--222--111111111111--111111--777777-777-|

Pre-Chorus
G|-----------------------|
D|-------------9-7-------|
A|-----------5-----5-7---|
D|-2-(16x)---------------|
I'm just not sure...

G|-------------------------|
D|-------------9-7---------|
A|-----------5-----5-7-----|
D|-2-(16x)-------------0~--|

Chorus
G|---------------------------------------------|
D|---------------------------------------------|
A|---------------------------------------------| (Times 2)
D|-2-(16x)--11-(x12)--13\-9-(12x)--16\-7-(16x)-|

Bridge
G|-----------------------------------------------------------------------|
D|-----------------------------------------------------------------------|
A|-----------------------------------------------------------------------|
D|-22222222-22222--0-00000000-00000-2-22222222-22222-0-00000000-0000-3-0-|

G|------------------------------------|
D|------------------------------------|
A|-11~------4~------2~----------------|
D|--------------------------7----0~---|
You stumble, through questions...

G|---------------------------------------------|
D|---------------------------------------------|
A|---------------------------------------------|
D|-2-(16x)--11-(x12)--13\-9-(12x)--16\-7-(16x)-|

Outro
G|---------------------------------------------|
D|---------------------------------------------|
A|---------------------------------------------|
D|-2-(16x)--11-(x12)--13\-9-(12x)--16\-7-(16x)-|

G|--------------------------------|
D|--------------------------------|
A|--------------------------------|
D|-2-(16x)--11-(x16)--9-(16x)--7~-|

Comments