Fightstar - Paint Your Target Chords & Tabs

 

Paint Your Target Chords & Tabs

Fightstar Chords & Tabs

Version: 1 Type: Bass Tab 0 ratings
1 star 2 stars 3 stars 4 stars 5 stars
comments

Paint Your Target Bass Tab

   
fightstar - paint your target
Tabbed By: stufin135 (hellbassist1)
Email: tozz_off@hotmail.com

Tuning: Drop D (D A D G)

I aint seen no tabs for this yet so here
it is next im trying to tab that palaphuniks 
laughter or whatevr it is to cause there
aint none of that either. rate fairly.

  INTRO
G|---------------------------||
D|---------------------------||
A|-10~----------10~----------||
D|---------------------------||


G|---------------------------||
D|---------------------------||
A|---------------------------||
D|-7~-----------7~-----------||


G|---------------------------||
D|---------------------------||
A|---------------------------||
D|-7~-----------h10~---------||you hammer onto that 10


G|-------------------------------------------------------||
D|-------------------------------------------------------||
A|-------------------------------------------------------||
D|0-2222222222222222-22222222-1010101010101010-77777777--||those are 10s

  VARSE 1
G|-------------------------------------------------------||
D|-------------------------------------------------------||
A|-------------------------------------------------------||
D|-2222222222222222-22222222-1010101010101010-77777777---||


  CHORUS
G|---------------9---8------------------------9---8----------||
D|-------------9---9------------------------9---9------------||
A|-----------------------------------------------------------||
D|-22222222--7-----------------------------7-----------------||
[ Tab from: http://www.guitartabs.cc/tabs/f/fightstar/paint_your_target_btab.html ]

  VERSE 2
G|-------------------------------------------------------||
D|-------------------------------------------------------||
A|-------------------------------------------------------||
D|-2222222222222222-22222222-1010101010101010-77777777---||


  CHORUS
G|---------------9---8------------------------9---8----------||
D|-------------9---9------------------------9---9------------||
A|-----------------------------------------------------------||
D|-22222222--7-----------------------------7-----------------||


  BRIDGE 1
G|-------------------------------------------------------------||
D|-------------------------------------------------------------||
A|-------------------------------------------------------------||
D|1-1-1-1-2-2-1-1--1-1-1-1-2-2-21-1-1-1-2-2-1-1--1-1-1-1-2-2-2-||


  BRIDGE 2
"that barrell is loaded..........so go and paint your target"
When thats sung just play
G|----------------||
D|----------------||
A|----------------||
D|b1~-------------||


BRIDGE 3
G|--------------------------------------------------------------||
D|--------------------------------------------------------------||
A|--------------------------------------------------------------||
D|0--2222222222222222-22222222-10-10-10-10-10-10-10-10-77777777-||

  OUTRO
G|--------------------------------------------------------------||
D|--------------------------------------------------------------||
A|--------------------------------------------------------------||
D|0--2222222222222222-22222222-10-10-10-10-10-10-10-10-77777777-||
Comments