Fightstar - Minerva Acoustic Chords & Tabs

 

Minerva Acoustic Chords & Tabs

Fightstar Chords & Tabs

Version: 1 Type: Tab

Minerva Acoustic Tab

This is a really cool cover version of the original Deftones song.I saw no tabs for it 
this is my first tab so thought i'd be brave and give it a shot.It's probably wrong but 
it's not. i know it's played on piano/keyboard but its playable on guitar.

Intro/Verse (x6)
e|------------------|
B|------------------|
G|-------6~--4------|
D|------------------|
A|--4~--------------|
E|------------------|

Chorus
e|-----------|---------------|----------------|--------------------|
B|-----------|---------------|----------------|--------------------|
G|------3--5-|------3--5--7--|--6--4--6--7----|--6--4--6--7--8-----|
D|----5------|----5----------|----------------|-----------------6--|
A|--3--------|--3------------|----------------|--------------------|
E|-----------|---------------|----------------|--------------------|

Verse (x4)
e|------------------|
B|------------------|
G|-------6~--4------|
D|------------------|
A|--4~--------------|
E|------------------|
[ Tab from: http://www.guitartabs.cc/tabs/f/fightstar/minerva_acoustic_tab.html ]
Chorus (x2)
e|-----------|---------------|----------------|--------------------|
B|-----------|---------------|----------------|--------------------|
G|------3--5-|------3--5--7--|--6--4--6--7----|--6--4--6--7--8-----|
D|----5------|----5----------|----------------|-----------------6--|
A|--3--------|--3------------|----------------|--------------------|
E|-----------|---------------|----------------|--------------------|

e|-----------------------------|
B|-----------------------------|
G|--6--------------------------|
D|--x-(Strum gradually louder)-|
A|--4--------------------------|
E|-----------------------------|

Verse (x4)
e|------------------|
B|------------------|
G|-------6~--4------|
D|------------------|
A|--4~--------------|
E|------------------|

Chorus (x4)
e|-----------|---------------|----------------|--------------------|
B|-----------|---------------|----------------|--------------------|
G|------3--5-|------3--5--7--|--6--4--6--7----|--6--4--6--7--8-----|
D|----5------|----5----------|----------------|-----------------6--|
A|--3--------|--3------------|----------------|--------------------|
E|-----------|---------------|----------------|--------------------|