Fightstar - Lost Like Tears In Rain Chords & Tabs

 

Lost Like Tears In Rain Chords & Tabs

Fightstar Chords & Tabs

Version: 2 Type: Tab 0 ratings
1 star 2 stars 3 stars 4 stars 5 stars
comments

Lost Like Tears In Rain Tab

ARTIST: Fightstar
TITLE:  Lost Like Tears In Rain
TABBER:	Luke Charman (emoluke@gmail.com)

---

Nobody could be bothered to tab it, so here you go.
It's not complete, the rest will come if anybody asks me to do it.

---

I think this is most likely a bass, but here are the notes anyway.

e|------------------------------------------|
B|------------------------------------------|
G|------------------------------------------|
D|------------------------------------------|
A|-66666666666666666666666------------------|
D|------------------------68888886666666666-|

e|------------------------------------------|
B|------------------------------------------|
G|------------------------------------------|
D|---------------------------------66666666-|
A|-666666666666666666666666--------66666666-|
D|-------------------------6666666666666666-|
                                   ........

Kick your distortion on when the palm muting starts.

Here's the harmony riff for both guitars:

Guitar 1:
[ Tab from: http://www.guitartabs.cc/tabs/f/fightstar/lost_like_tears_in_rain_tab_ver_2.html ]
e|------------------------------------------------------------|
B|------------------------------------------------------------|
G|-------------------7h8p7h8p7---------------------7h8p7h8p7--|
D|----------------------------10----------------------------8-|
A|-10-10-10-10-10-10-------------10-10-10-10-10-10------------|
D|-10-10-10-10-10-10-------------10-10-10-10-10-10------------|

e|---------------------------------------------------|
B|---------------------------------------------------|
G|-------------7h8p7h8p7h10-------------10p8p7h8p7---|
D|------------------------------------------------10-|
A|-6-6-6-6-6-6--------------8-8-8-8-8-8--------------|
D|-6-6-6-6-6-6--------------8-8-8-8-8-8--------------|

Guitar 2:

e|------------------------------------------------------------|
B|-------------------6h8p6h8p6---------------------6h8p6h8p6--|
G|----------------------------8-----------------------------8-|
D|------------------------------------------------------------|
A|-10-10-10-10-10-10------------10-10-10-10-10-10-------------|
D|-10-10-10-10-10-10------------10-10-10-10-10-10-------------|

e|-----------------------------------------------|
B|-------------6h8p6h8p6--------------6h8p6h8p6--|
G|----------------------7----------------------8-|
D|-----------------------------------------------|
A|-6-6-6-6-6-6------------8-8-8-8-8-8------------|
D|-6-6-6-6-6-6------------8-8-8-8-8-8------------|


The next section is this:

e|-11-----11-----11---10-----10-----10---|
B|----8------8------8----8------8------8-|
G|------8------8-----------8------8------|
D|---------------------------------------|
A|---------------------------------------|
D|---------------------------------------|

---

Comments? Questions? Suggestions? emoluke AT gmail.com
Comments