Fightstar - Amethyst Chords & Tabs

 

Amethyst Chords & Tabs

Fightstar Chords & Tabs

Version: 4 Type: Tab 0 ratings
1 star 2 stars 3 stars 4 stars 5 stars
comments

Amethyst Tab

I noticed one of the tabs only had Charlies part, so i decided to try and tab Alex's part, so please rate!

-=> 2nd Guitar Part - Alex Westaway <=-

Intro
e |---------------------------------|---------------------------------|
B |---0~--1~--0~--1~--0~--1~--0~--1~|---0~--1~--0~--1~--0~--1~--0~--1~|
G |---------------------------------|---------------------------------|
D |---------------------------------|---------------------------------|
A |---------------------------------|---------------------------------| Times 2
E |---------------------------------|---------------------------------|

Break
e |------------------------------|
B |------------Rest--------------|
G |----------while-1st-----------|
D |---------guitar plays---------|
A |------------------------------|
E |------------------------------|

Intro
e |---------------------------------|---------------------------------|
B |---0~--1~--0~--1~--0~--1~--0~--1~|---0~--1~--0~--1~--0~--1~--0~--1~|
G |---------------------------------|---------------------------------|
D |---------------------------------|---------------------------------|
A |---------------------------------|---------------------------------| Times 2
E |---------------------------------|---------------------------------|


Break
e |------------------------------|
B |------------Rest--------------|
G |----------while-2st-----------|
D |---------guitar plays---------|
A |------------------------------|
E |------------------------------|


Verse
e |---0c---------------------|
B |---1c---------------------|
G |---2c---------------------|
D |---2c---------------------|
A |---0c---------------------|
E |---x----------------------|
She smokes like an amethyst...

Verse
e |---0c-----------------------1c-------------------0c--|
B |---1c-----------------------1c-------------------1c--|
G |---0c-----------------------2c-------------------2c--|
D |---2c-----------------------3c-------------------2c--|
A |---3c-----------------------3c-------------------0c--|
E |---x------------------------1c-------------------x---|
She's moving away through my skin... She moves me...

Verse
e |------------------------0c-----------------------------1c------------0c-|
B |------------------------1c-----------------------------1c------------1c-|
G |------------------------0c-----------------------------2c------------2c-|
D |------------------------2c-----------------------------3c------------2c-|
A |------------------------3c-----------------------------3c------------0c-|
E |------------------------x------------------------------1c------------x--|
Cause East is the way i go...   But nobody seems to notice.. How i feel..


Pre-Chorus
e |---0c-----333--0c---0c---0c---|
B |---2c-----333--1c---1c---1c---|
G |---2c-----000--0c---2c---0c---|
D |---2c-----000--2c---2c---2c---|
A |---0c-----222--3c---0c---3c---|
E |---x------333--x----x----x----|


Chorus
(this may be a third guitar part, as i think he plays the same as Charlie during the chorus)
e |-----------------------------------|-----------------------------------|
B |---------------10c--8c--6c--5c--1~-|---------10c--8c--6c--5c--1c---6c--|
G |-----------------------------------|-----------------------------------|
D |-----------------------------------|-----------------------------------|
A |-----------------------------------|-----------------------------------|
E |-----------------------------------|-----------------------------------|
And I'll try to kill our past time..  I'll just fall asleep         


Intro
e |---------------------------------|---------------------------------|
B |---0~--1~--0~--1~--0~--1~--0~--1~|---0~--1~--0~--1~--0~--1~--0~--1~|
G |---------------------------------|---------------------------------|
D |---------------------------------|---------------------------------|
A |---------------------------------|---------------------------------| Times 2
E |---------------------------------|---------------------------------|

[ Tab from: http://www.guitartabs.cc/tabs/f/fightstar/amethyst_tab_ver_4.html ]
Break
e |------------------------------|
B |------------Rest--------------|
G |----------while-1st-----------|
D |---------guitar plays---------|
A |------------------------------|
E |------------------------------|


Verse
e |---0c-----------------------0c--|
B |---1c-----------------------1c--|
G |---2c-----------------------0c--|
D |---2c-----------------------2c--|
A |---0c-----------------------3c--|
E |---x------------------------x---|
         This body only needs...

Verse
e |---0c-----------------1c-------------0c--|
B |---1c-----------------1c-------------1c--|
G |---0c-----------------2c-------------2c--|
D |---2c-----------------3c-------------2c--|
A |---3c-----------------3c-------------0c--|
E |---x------------------1c-------------x---|
To learn to feel the problem...     Disappear...

Verse
e |--------------------------0c--------------------------1c------------------|
B |--------------------------1c--------------------------1c------------------|
G |--------------------------0c--------------------------2c------------------|
D |--------------------------2c--------------------------3c------------------|
A |--------------------------3c--------------------------3c------------------|
E |--------------------------x---------------------------1c------------------|
I froze with those plastic eyes... Cutting loose from... Upon this disguise...

Verse
e |---0c---------|
B |---1c---------|
G |---2c---------|
D |---2c---------|
A |---0c---------|
E |---x----------|

Pre-Chorus
e |---0c-----333--0c---0c---0c---|
B |---2c-----333--1c---1c---1c---|
G |---2c-----000--0c---2c---0c---|
D |---2c-----000--2c---2c---2c---|
A |---0c-----222--3c---0c---3c---|
E |---x------333--x----x----x----|


Chorus
e |-----------------------------------|-----------------------------------|
B |---------------10c--8c--6c--5c--1~-|---------10c--8c--6c--5c--1c---6c--|
G |-----------------------------------|-----------------------------------|
D |-----------------------------------|-----------------------------------|
A |-----------------------------------|-----------------------------------|
E |-----------------------------------|-----------------------------------|
And I'll try to kill our past time..  I'll just fall asleep   


Bridge
e |------------------------|------------------------|
B |------------------------|------------------------|
G |------------------------|------------------------|
D |-7777-7m--7777-7m--7777-|-7777-7m--7777-7m--7777-|
A |-7777-7m--7777-7m--7777-|-7777-7m--7777-7m--7777-|
E |-5555-5m--5555-5m--5555-|-5555-5m--5555-5m--5555-|

Bridge
e |------------------------|------------------------|
B |------------------------|------------------------|
G |------------------------|----------REST----------|
D |-7777-7m--7777-7m--7777-|---------(Bass)---------|
A |-7777-7m--7777-7m--7777-|------------------------|
E |-5555-5m--5555-5m--5555-|------------------------|

Bridge
e |------------------------|------------------------|
B |------------------------|------------------------|
G |------------------------|------------------------|
D |-7777-7m--7777-7m--7777-|-3333-3m--3333-3m--3333-|
A |-7777-7m--7777-7m--7777-|-3333-3m--3333-3m--3333-|
E |-5555-5m--5555-5m--5555-|-1111-1m--1111-1m--1111-|

Bridge
e |------------------------|------------------------|
B |------------------------|------------------------|
G |------------------------|------------------------|
D |-7777-7m--7777-7m--7777-|--3~~~------------------|
A |-7777-7m--7777-7m--7777-|--3~~~------------------|
E |-5555-5m--5555-5m--5555-|--1~~~------------------|




Outro
e |---0---------0------|---0---------0------|---0---------0-----------0-|
B |----1---------1-----|----1---------1-----|----1---------1---------1--|
G |------2---------2---|------0---------0---|------2---------2------2---|
D |--2-----2---2-----2-|--2-----2---2-----2-|--2-----2---2-----2---2----|
A |-0---------0--------|-3---------3--------|-0---------0---------0-----|
E |--------------------|--------------------|---------------------------|
She Smokes like an amethyst...
Comments