Fifty Four - Climbing Chords & Tabs

 

Climbing Chords & Tabs

Fifty Four Chords & Tabs

Version: 1 Type: Tab 0 ratings
1 star 2 stars 3 stars 4 stars 5 stars
comments

Climbing Tab

Band: Fifty Four
Song: Climbing

Tabber: John Cukras
Email: riffreaper@yahoo.com

Riff 1:
E--------------------------------------------|
B--------------------------------------------|
G-22222222-----------------------------------|
D-22222222-55555555-77777777-555555-33-------|
A-00000000-33333333-55555555-333333-11-------|
E------------------------------------- x's 2-|

Riff 2:
E-------------------------------|
B-------------------------------|
G-22---2-------22---2-----------|
D-22-5-2-5-7-5-22-5-2-5---------|
A-00-3-0-3-5-3-00-3-0-3-5-------|
E-----------------------3 x's 8-|

Riff 1

Riff 2

Riff 1 x's 4
[ Tab from: http://www.guitartabs.cc/tabs/f/fifty_four/climbing_tab.html ]
Riff 3: Not 100% about this part, but sounds close.
E----------------------|
B----------------------|
G----------------------|
D-2--------------------|
A-2--3--4--5-3-5-------|
E-0--4--5--3-1-3 x's 6-|

Riff 1 x's 8 (Till End)

Riff 4: Starts riff 1: 5th time                            1st   2nd   3rd   4th
E--------------------------------------------------------|-----|-----|-----|-----|
B--------------------------------------------------------|-7~--|-9~--|-7~--|-11~-|
G--------5~-55----------7~-----------9~--12-11-9-12-11-9-|-----|-----|-----|-----|
D-11-9-7--------12-10-8-----14-12-10---------------------|-----|-----|-----|-----|
A--------------------------------------------------------|-----|-----|-----|-----|
E--------------------------------------------------------|-----|-----|-----|-----|
Comments