Fifteen - In Our World Chords & Tabs

 

In Our World Chords & Tabs

Fifteen Chords & Tabs

Version: 2 Type: Bass Tab 0 ratings
1 star 2 stars 3 stars 4 stars 5 stars
comments

In Our World Bass Tab

From:	haplo_4@hotmail.com
Sent:	26 July 1998 02:09 AM

Subject: f/fifteen/in_our_world.btab  minor corrections
Submitted and Tabbed by: Haplo_4@hotmail.com

fifteen  In Our World   taken from: Buzz       

-----------------------------A-Major----------------------------------

G: -----------------------------------:
D: -----------------------------------:
A: --7-----4-4444444------------------:
E: 0---444-----------555545-7-7777777-:


----------------------------------------------------------------------
[ Tab from: http://www.guitartabs.cc/tabs/f/fifteen/in_our_world_btab_ver_2.html ]
G: -----------------:------------------------------------------
D: -----------------:------------------------------------------
A: -----------------:------------------------------------------
E: 555-444-77777777-:-555555-444444-22-2222-22-2222-4-5-5555555


----------------------------------------------------------------------

G: ---------------------------------------------------:
D: ---------------------------------------------------:
A: -------------00-0000-0000-7777-7777-77-------------:
E: 7777-7777-77---------------------------7777-7777-77:


----------------------------------------------------------------------

G: ---------------------------------------------------------:
D: ---------------------------------------------------------:
A: 77-777-777-55-4444-44-4-222222-000000---------0-4-2-2222-:
E: --------------------------------------444-222------------:

Comments