Fieldy - Are You Talking To Me Chords & Tabs

 

Are You Talking To Me Chords & Tabs

Fieldy Chords & Tabs

Version: 1 Type: Bass Tab 0 ratings
1 star 2 stars 3 stars 4 stars 5 stars
comments

Are You Talking To Me Bass Tab

"Are you talking to me"
By: Feildy
Album: Rock and roll gangsta
Tabbed by: Steve Phalen, SugarVein@aol.com
[ Tab from: http://www.guitartabs.cc/tabs/f/fieldy/are_you_talking_to_me_btab.html ]
Intro/Verse
G|-------20--17-------16--------------18-17---------------------------
D|----19--------16-------15--------17-------18-17-16------------------
A|-18--------------15-------14--16------------------------------------
E|----------------------------------------------------0-3-2-0-2-1-----
B|--------------------------------------------------------------------


Chorus
G|--------------------------------------------------------------------
D|--------------------------------------------------------------------
A|--------------------------------------------------------------------
E|--------------------------------------------------------------------
B|--0-3-2-0-2-1--repeat-as-many-as-times-as-the-song-does-------------
Comments