Fields Of The Nephilim - Trees Come Down Chords & Tabs

 

Trees Come Down Chords & Tabs

Fields Of The Nephilim Chords & Tabs

Version: 1 Type: Tab 0 ratings
1 star 2 stars 3 stars 4 stars 5 stars
comments

Trees Come Down Tab

TREES COME DOWN
As recorded by Fields Of The Nephilim
(From the 1985 EP Burning The Fields)
Transcribed by: beryl@closedcaskets.com

Riff 1
e -12-------------------------12---------||
B ----13-------13----15----13----13------||
G -------14-------14----14----------14---||
D ----------14---------------------------||
A ---------------------------------------||
D ---------------------------------------||


Riff 2
e -5------------------5------------------||
B ---6---5-h6---8---6---6----------------||
G -----7------7---7-------7--------------||
D ---------------------------------------||
A ---------------------------------------||
D ---------------------------------------||


Riff 3
e -5-----8-----7----5--------------------||
B ---6-----6----6-----6------------------||
G -----7-----7----7-----7----------------||
D ---------------------------------------||
A ---------------------------------------||
D ---------------------------------------||

[ Tab from: http://www.guitartabs.cc/tabs/f/fields_of_the_nephilim/trees_come_down_tab.html ]
Riff 4
e --------------------------------------------------------------------------------------------------||
B --------------------------------------------------------------------------------------------------||
G --------------------------------------------------------------------------------------------------||
D --------------------------------------------------------------------------------------------------||
A -0-----------------------3------------------------------------3------3---3---------5---5/---------||
D -0-----------------------3------------------------------------3------3---3---------5---5/---------||


Riff 5
e --------------------------------------------------------------------------------------------------||
B -10h11------10-------10--10h11------10------8--8----10-11-10-------11-10-10---11-10-10---11-10----||
G --------------------------------------------------------------------------------------------------||
D --------------------------------------------------------------------------------------------------||
A --------------------------------------------------------------------------------------------------||
D --------------------------------------------------------------------------------------------------||


Riff 6
e -13-------12---------------------||
B ----10-------10----13-10---------||
G -------12-------12---------------||
D ---------------------------------||
A ---------------------------------||
D ---------------------------------||
Comments