Fields Of The Nephilim - Celebrate Chords & Tabs

 

Celebrate Chords & Tabs

Fields Of The Nephilim Chords & Tabs

Version: 1 Type: Bass Tab 0 ratings
1 star 2 stars 3 stars 4 stars 5 stars
comments

Celebrate Bass Tab

"Celebrate" by Fields of the Nephilim (from the album "The Nephilim")
=====================================================================

main bass line:

G|-----9-------9-------9-------9-------9-------9-------9-------9---
D|---7---7---7---7---7---7---7---7---7---7---7---7---7---7---7---7-
A|-0-------0-------0-------0-------0-------0-------0-------0-------

G|-----9-------9-------9-------9s7-----7-----7-----7-----7---------
D|---7---7---7---7---7---7---7-----0-0---0-0---0-0---0-0---0-0-5s7-
A|-0-------0-------0-------0---------------------------------------

"chorus":
[ Tab from: http://www.guitartabs.cc/tabs/f/fields_of_the_nephilim/celebrate_btab.html ]
G|-----9-------9-----9-----9---------------------------------------
D|---7---7---7---7-7---7-7---------------5---------------5---------
A|-0-------0-------------------7s5s3-----------3---------------3---
E|-------------------------------------------------3---------------

D|---------------------------------------5---------------5---------
A|---------------------------------3-----------3---------------3---
E|-5-----------------------------------------------3---------------

A|---------------------5---5---5s7-
E|-5-----------------3---3---3-----
or
A|---------------3-----------------
E|-5-----------3---5--(s)----------

Comments