Fftl - The Latest Plague Chords & Tabs

 

The Latest Plague Chords & Tabs

Fftl Chords & Tabs

Version: 1 Type: Tab 0 ratings
1 star 2 stars 3 stars 4 stars 5 stars
comments

The Latest Plague Tab

   
Guitar 1
D ||-13-13-13-13-13-13-13-13---13-13-13-13--10-10-10-10-|
A ||-10-10-10-10-10-10-10-10---10-10-10-10--10-10-10-10-|
F ||-10-10-10-10-10-10-10-10---10-10-10-10--10-10-10-10-|
C ||----------------------------------------------------|
G ||----------------------------------------------------|
C ||----------------------------------------------------|

Play 4x times, or until "buzzing" sound comes in.

Verse:

Guitar 1
D ||-13-13-13-13-13-13-13-13---13-13-13-13--10-10-10-10-|
A ||-10-10-10-10-10-10-10-10---10-10-10-10--10-10-10-10-|
F ||-10-10-10-10-10-10-10-10---10-10-10-10--10-10-10-10-|
C ||----------------------------------------------------|
G ||----------------------------------------------------|
C ||----------------------------------------------------|

Play 3x times, then...

Guitar 1
D ||-13-13-13-13-13-13-13-13--13-13-13-13---------------|
A ||-10-10-10-10-10-10-10-10--10-10-10-10---------------|
F ||-10-10-10-10-10-10-10-10--10-10-10-10---------------|
C ||----------------------------------------------------|
G ||----------------------------------------0-----3-----|
C ||------------------------------------------333---555-|

Guitar 2
D ||----------------------------------------------------|
A ||----------------------------------------------------|
F ||----------------------------------------------------|
C ||----------------------------------------------------|
G ||----------------------------------------0-----3-----|
C ||------------------------------------------333---555-|

Pre-chorus:

Guitars 1 & 2
D ||--------------------------------------|
A ||--------------------------------------|
F ||--------------------------------------|
C ||-0-00000000000000---33333333-66666666-|
G ||-0-00000000000000---33333333-66666666-|
C ||-0-00000000000000---11111111-44444444-|
       ..............

Chorus:

Guitar 1
D ||------------------------------------------------|
A ||------------------------------------------------|
F ||--------------------3333333333333333------------|
C ||-0000000000000000---3333333333333333---55555555-|
G ||-0000000000000000---1111111111111111---55555555-|
C ||-0000000000000000----------------------55555555-|

D ||--------------------------------|
A ||--------------------------------|
F ||--------------------------------|
C ||-44444444---11111111---55555555-|
G ||-44444444---11111111---33333333-|
C ||-44444444---11111111------------|

Play 2x

(Guitar 2 plays something in the background, but It's to hard to hear)

Breakdown:

Guitars 1 & 2
D ||-------------------10---10---10----------|
A ||-------------------10---10---10----------|
F ||-------------------10---10---10----------|
C ||-0-0-0-0-0-0-0-0------0----0----0---0000-|
G ||-0-0-0-0-0-0-0-0------0----0----0---0000-|
C ||-0-0-0-0-0-0-0-0------0----0----0---0000-|

Second Verse:

Guitar 1
D ||-13-13-13-13-13-13---10101010-|
A ||-10-10-10-10-10-10---10101010-|
F ||-10-10-10-10-10-10---10101010-|
C ||------------------------------|
G ||------------------------------|
C ||------------------------------|

Guitar 2 (Same as Intro)
D ||-13-13-13-13-13-13-13-13---13-13-13-13--10-10-10-10-|
A ||-10-10-10-10-10-10-10-10---10-10-10-10--10-10-10-10-|
F ||-10-10-10-10-10-10-10-10---10-10-10-10--10-10-10-10-|
C ||----------------------------------------------------|
G ||----------------------------------------------------|
C ||----------------------------------------------------|

Both play 3x, then....

Guitars 1 & 2
D ||-13-13-13-13---------------|
A ||-10-10-10-10---------------|
F ||-10-10-10-10---------------|
C ||---------------------------|
G ||---------------0-----3-----|
C ||-----------------333---555-|


Repeat whole section 2x

Pre-Chorus:

Guitars 1 & 2
D ||--------------------------------------|
A ||--------------------------------------|
F ||--------------------------------------|
C ||-0-00000000000000---33333333-66666666-|
G ||-0-00000000000000---33333333-66666666-|
C ||-0-00000000000000---11111111-44444444-|
       ..............

Chorus:

Guitar 1
D ||------------------------------------------------|
A ||------------------------------------------------|
F ||--------------------3333333333333333------------|
C ||-0000000000000000---3333333333333333---55555555-|
G ||-0000000000000000---1111111111111111---55555555-|
C ||-0000000000000000----------------------55555555-|

D ||--------------------------------|
A ||--------------------------------|
F ||--------------------------------|
C ||-44444444---11111111---55555555-|
G ||-44444444---11111111---33333333-|
C ||-44444444---11111111------------|

Play 2x

Interlude:
[ Tab from: http://www.guitartabs.cc/tabs/f/fftl/the_latest_plague_tab.html ]
Guitars 1 & 2
D ||--------------------------------------------------------|
A ||--------------------------------------------------------|
F ||--------------------------------------------------------|
C ||-0000000000000000---3333333333333333---8888888888888888-|
G ||-0000000000000000---1111111111111111---6666666666666666-|
C ||-0000000000000000---------------------------------------|
     ................   ................   ................

D ||------------------------|
A ||------------------------|
F ||------------------------|
C ||-10-8-77777777-66666666-|
G ||-8--6-55555555-44444444-|
C ||------------------------|
     .. . ........ ........

D ||--------------------------------------------------------|
A ||--------------------------------------------------------|
F ||--------------------------------------------------------|
C ||-0000000000000000---3333333333333333---8888888888888888-|
G ||-0000000000000000---1111111111111111---6666666666666666-|
C ||-0000000000000000---------------------------------------|
     ................   ................   ................

D ||------------------------|
A ||------------------------|
F ||------------------------|
C ||-10-8-77777777-66666666-|
G ||-8--6-55555555-44444444-|
C ||------------------------|
     .. . ........ ........

Breakdown / Solo:

Guitar 1
D ||-----------------------------------|
A ||-----------------------------------|
F ||-----------------------------------|
C ||-0-0-0-0-0-0-0-7---8-8-8-8-8-8-8-8-|
G ||-0-0-0-0-0-0-0-7---8-8-8-8-8-8-8-8-|
C ||-0-0-0-0-0-0-0-7---8-8-8-8-8-8-8-8-|

Guitar 2
D ||-13p12p10h13p12p10h13p12p10h13p12p10h13p12p10h13p12p10h13p12p10-|
A ||----------------------------------------------------------------|
F ||----------------------------------------------------------------|
C ||----------------------------------------------------------------|
G ||----------------------------------------------------------------|
C ||----------------------------------------------------------------|

(This is actually done with tremelo picking, but I use hammer-on's and pull-off's. I'm 
exactly sure how many times you play it, but just listen to the song to figure it out)

Guitar 1
D ||--------------------------------|
A ||--------------------------------|
F ||--------------------------------|
C ||-1-1-1---3-3-3------------------|
G ||-1-1-1---3-3-3------------------|
C ||-1-1-1---3-3-3---0-s12---s0-s11-|

Guitar 2
D ||-13p12p10h13p12p10h13p12p10h13p12p10h13p12p10h13p12p10h13p12p10-|
A ||----------------------------------------------------------------|
F ||----------------------------------------------------------------|
C ||----------------------------------------------------------------|
G ||----------------------------------------------------------------|
C ||----------------------------------------------------------------|

Guitar 1
D ||-----------------------------------|
A ||-----------------------------------|
F ||-----------------------------------|
C ||-0-0-0-0-0-0-0-7---8-8-8-8-8-8-8-8-|
G ||-0-0-0-0-0-0-0-7---8-8-8-8-8-8-8-8-|
C ||-0-0-0-0-0-0-0-7---8-8-8-8-8-8-8-8-|

Guitar 2
D ||-13p12p10h13p12p10h13p12p10h13p12p10h13p12p10h13p12p10h13p12p10-|
A ||----------------------------------------------------------------|
F ||----------------------------------------------------------------|
C ||----------------------------------------------------------------|
G ||----------------------------------------------------------------|
C ||----------------------------------------------------------------|


Guitar 1
D ||--------------------------------|
A ||--------------------------------|
F ||--------------------------------|
C ||-1-1-1---3-3-3------------------|
G ||-1-1-1---3-3-3------------------|
C ||-1-1-1---3-3-3---0-s12---s1p0---|

Chorus:

Guitar 1 (& 2)
D ||------------------------------------------------|
A ||------------------------------------------------|
F ||--------------------3333333333333333------------|
C ||-0000000000000000---3333333333333333---55555555-|
G ||-0000000000000000---1111111111111111---55555555-|
C ||-0000000000000000----------------------55555555-|

D ||--------------------------------|
A ||--------------------------------|
F ||--------------------------------|
C ||-44444444---11111111---55555555-|
G ||-44444444---11111111---33333333-|
C ||-44444444---11111111------------|

Play 2x

Outro

Guitars 1 & 2
D ||---------------------------------------------------|
A ||---------------------------------------------------|
F ||---------------------------------------------------|
C ||-3---2---0---5---3---2---0---2---3---2---0---2---0-|
G ||-3---2---0---3---3---2---0---2---3---2---0---2---0-|
C ||-3---2---0-------3---2---0---2---3---2---0---2---0-|

Play 4x
(It may seem confusing at first, just play it slow, and it'll come to you)

Key:
h- hammer-on
p- pull-off
s- slide
Comments