Ferdinando Carulli - Andantino Chords & Tabs

 

Andantino Chords & Tabs

Ferdinando Carulli Chords & Tabs

Version: 2 Type: Tab

Andantino Tab

Hello.. this is a beautiful song , buy yea , this part is :)
I think it's somewhere in the middle of the song...
Enjoy!

E------------------------------------------0----0----1----1----------------|
B--1----1----0----0----3----3----1----1------------------------0----0----1-|
G----0----0----0----0----0----0----0----0----0----0----0----0----0----0----|
D--2----2----0----0----3----3----2----2--------------0----0----------------|
A------------------------------------------3----3------------------------3-|
E--------------------------------------------------------------3----3------|
 Do this twice then:
[ Tab from: http://www.guitartabs.cc/tabs/f/ferdinando_carulli/andantino_tab_ver_2.html ]
E--0----0----1----1----0----0----1----1----2----2----3----3----2----2----3-|
B--1----1----3----3----2----2----3----3----1----1----0----0----1----1----0-|
G----0----0----0----0----0----0----0----0--------------------------------0-|
D--------------------------------------------0----0----0----0----0----0----|
A--------------------------------------------------------------------------|
E--------------------------------------------------------------------------|

E------------------------------------------0----0----1----1----------------|
B--1----1----0----0----3----3----1----1------------------------0----0----1-|
G----0----0----0----0----0----0----0----0----0----0----0----0----0----0--0-|
D--2----2----0----0----3----3----2----2--------------0----0--------------2-|
A------------------------------------------3----3------------------------3-|
E--------------------------------------------------------------3----3------|
At the end, when you reach the 1-0 part slow it down until it stops , that makes it 
better :)

That's it!