Fenix Tx - Threesome Chords & Tabs

 

Threesome Chords & Tabs

Fenix Tx Chords & Tabs

Version: 1 Type: Tab 0 ratings
1 star 2 stars 3 stars 4 stars 5 stars
comments

Threesome Tab

   
Fenix Tx - Threesome

Wicked song and easy to play..
Listen to it to hear when it changes.


e-------------------------------------------------------------
B-------------------------------------------------------------
G--7-7-------7-7-------7-7-------------4-4-------4-4-------4444-
D--7-7-------7-7-------7-5-------------4-4-------4-4-------4444-
A--5-5-------5-5-------5-5-------------2-2-------2-2-------2222-  x2
E-------------------------------------------------------------
And if there's nothing left...etc I'll string you along...etc
[ Tab from: http://www.guitartabs.cc/tabs/f/fenix_tx/threesome_tab.html ]
e------------
B------------
G------------                G----7777777
D------777777                D----7777777
A------777777                A----5555555
E------555555                E-------------

And if you want to dance...etc I won't mind
 
2nd verse Same as 1st but strummed

                          G--77777------------44444444
D-77777                   D--77777------------44444444
A-77777                   A--55555------------22222222
E-55555                   E

And if you want to...etc I'll go out of my way I'll do anything


G---------77777
D-777777--77777
A-777777--55555
E-555555

And one word is all i need

interlude bit
G-7-7----7-7---765
D-7-7----7-7---765
A-5-5----5-5---543
E----------








Comments