Fenix Tx - Threesome Chords & Tabs

 

Threesome Chords & Tabs

Fenix Tx Chords & Tabs

Version: 1 Type: Bass Tab 0 ratings
1 star 2 stars 3 stars 4 stars 5 stars
comments

Threesome Bass Tab

Fenix Tx - Threesome

Tabber - Michael Dixon
Instrument - Bass

This is 100% correct and this is the way i played it with my band. This can get a little borin
at times but the fast chorus bit is cool. As ever any corrections (but i dont think there is
any) to the email address at the bottom.

Main riff

G	--------------------|------------------|
D	--------------------|------------------|
A	55---55---55--55-55-|-22--22--22--22-22|
E	--------------------|------------------|

1st Chorus

G	----------------|------------------|
D	----------------|------------------|
A	----------------|-55---55---55---5*|
E	3333333333333333|------------------|

Fast Bit

G	-------------------------------------|
D	--------77777777----------77-66-44-22|
A	55555555--------555555555------------|
E	-------------------------------------|
[ Tab from: http://www.guitartabs.cc/tabs/f/fenix_tx/threesome_btab.html ]
G	-------------------------------------|
D	--------44444444---------------------|
A	22222222--------22222222-42-42-42-42-|
E	-------------------------------------|

G	------------------------77-66-44-22--|
D	--------77777777---------------------|
A	55555555--------55555555-------------|
E	-------------------------------------|

G	-------------------------------------|
D	--------44444444---------------------|
A	22222222--------22222222-4-4-4-------|
E	-------------------------------------|

The Remainin Chorus'

G	----------------------------------------------------------------|
D	----------------------------------------------------------------|
A	----------------5-4-2-0-----------------5-4-2-0-----------------|
E	3333333333333333-------55555555-22222222-------33333333-55555555|

The funny fill thing

G	-----------------------|
D	-----------------------|
A	55---55---55---55-5-4-2|
E	-----------------------|

ill leave the order for yourself to work out

Any Comments/corrections/requests/other stuff to punk666bassist@hotmail.com
Comments