Fenix Tx - Rooster Song Chords & Tabs

 

Rooster Song Chords & Tabs

Fenix Tx Chords & Tabs

Version: 1 Type: Bass Tab 0 ratings
1 star 2 stars 3 stars 4 stars 5 stars
comments

Rooster Song Bass Tab

Song: Rooster Song
Band: Fenix Tx
Album: Fenix Tx
Tabbed By: Nate (sk8numeric03) Bassist for Crookyd

Standard Tuning

Intro: No bass for a small bit....

Intro/Bridge
G|-------------------------------------
D|----------4--------------------------
A|-----5-55--555-----------------------
E|----------------3-3/5-555------------
[ Tab from: http://www.guitartabs.cc/tabs/f/fenix_tx/rooster_song_btab.html ]
Verse (Practically the same as the Intro but a small difference)
G|-----------------------------
D|----------444----------------
A|----5-55---------------------
E|--------------3-3/5-555------

Chorus   x2
G|--------------------------------------------
D|--------------------------------------------
A|--------------------------------------------
E|------3-3333333333-5-5555555555-54----------

That’s it I think.
E-mail me with your questions/comments/complaints

Comments