Fenix Tx - Phoebe Cates Chords & Tabs

 

Phoebe Cates Chords & Tabs

Fenix Tx Chords & Tabs

Version: 1 Type: Tab 0 ratings
1 star 2 stars 3 stars 4 stars 5 stars
comments

Phoebe Cates Tab

Fenix TX
Phoebe Cates

Hey everyone. Its me again, Willy T bringing you another fabulous punk 
song this time by Fenix TX. Although Fenix is kinda in limbo again with
the loss of James, this song still rocks and thought this tab would
be nice. Although the song is played by two guitars, I have tabbed it 
for one for all you three piece bands out there. It sounds fabulous.

Tuning: Just tune your low E string down to a D and that'll be fine.

One thing first. There are too many strums of each chord to list so 
I'll just list each chord once. Enjoy.

Intro:
---------------------------------
---------------------------------
----4/55\4/5\4-------77----------
-55-4/55\4/5\4-22-77-77----------
-55-2/33\2/3\2-22-77-55----------
-55------------22-77-------------

Verses:
For the verses, its mainly just bass and palm muting. To make it sound
good, just play the root notes of the intro chords. You can get the 
rhythm of the palm mutes if you just listen for it.
[ Tab from: http://www.guitartabs.cc/tabs/f/fenix_tx/phoebe_cates_tab.html ]
Chorus:
---------------------------------
---------------------------------
-55--77--99--77--55-5/7----------
-55--77--77--77--55-5/7----------
-33--55--77--55--33-3/5----------
---------------------------------

After you repeat the chorus as needed, go back to the intro chords 
and into another verse and chorus. The breakdown is the semi-tricky
part.

Breakdown:
At first it starts off as just bass, but then the guitar comes in 
palm muted like this.

---------------------------------
---------------------------------
----44---------------------------
-55-44-22---------------------0*-
-55-22-22---------------------0--
-55----22---------------------0--

*But then when the palm muting stops, the guitar plays the chords 
and adds a fourth chord. This last chord is the purpose of the drop D 
tuning of the low E string. Its just the three open strings. After 
this you just go back into a chorus and then back into the intro chords
until the song comes to a close. Sweet song. Punk on!

Willy T - Punk Guru 



Comments