Fenix Tx - Jolly Green Dumbass Chords & Tabs

 

Jolly Green Dumbass Chords & Tabs

Fenix Tx Chords & Tabs

Version: 1 Type: Tab 0 ratings
1 star 2 stars 3 stars 4 stars 5 stars
comments

Jolly Green Dumbass Tab

   
"Jolly Green Dumbass"
 Fenix TX
 Riverfenix, Fenix TX

 Chords:
e-----------------
b-----------------
g--7--------4--5--
d--7--7--5--4--5--
a--5--7--5--2--3--
e-----5--3--------
  D5 A5 G5 B5 C5

Intro (rhythm): D5,A5,G5,A5
[ Tab from: http://www.guitartabs.cc/tabs/f/fenix_tx/jolly_green_dumbass_tab.html ]
Intro (lead)
e-----------------------------------------
b-----------------------------------------
g--7-9-9-12-12-11-9-7--7-9-9-12-12-11/14--
d-----------------------------------------
a-----------------------------------------
e-----------------------------------------

Verse: D5,A5,G5,A5(p.m.)

Chorus: G5,A5,D5,G5,A5--D5,C5,B5--G5,A5,D5

Solo: This is only part of it,but it should help:  (D5,A5,G5,A5)
e---------------------------
b---------------------------
g-7~----------7h9-7-11-9-7--
d---------7h9---------------
a-----7h9-------------------
e---------------------------

Outro: play intro
End on D5

Tab: Matt Nielsen punker164@hotmail.com











Comments