Fenix Tx - Flight 601 All Ive Got Is Time Chords & Tabs

 

Flight 601 All Ive Got Is Time Chords & Tabs

Fenix Tx Chords & Tabs

Version: 1 Type: Tab 0 ratings
1 star 2 stars 3 stars 4 stars 5 stars
comments

Flight 601 All Ive Got Is Time Tab

Group:Fenix Tx
Song: Flight 601 (All I\'ve got is time)
Tabbed by: blnkman
 E-mail me for more Fenix Tx request cause i knowem all
(blnkman@triad.rr.com)

strumming and placement is quite easy with this song so with this you should have it in no time

standard tuning

Intro   Play 3x                                                 Then   
e---------------------------------------------|           -12-----12-------------------------            
B----9----9---12----12---------------------|          --------12-----12----10----10--------
G------9----9-----9-----9-------------------|          ------------------------9-----9------
D---------------------------------------------|          -------------------------------------
G---------------------------------------------|          -------------------------------------
E----------------------------------------------|         -------------------------------------

[ Tab from: http://www.guitartabs.cc/tabs/f/fenix_tx/flight_601_all_ive_got_is_time_tab.html ]
Verse w/ palm muting in between power chords
e----------------------------------------------   
B----------------------------------------------
G----9-------7-----------------------------------
D----9---9---7----7---------------------------------
G----7---9---5----7----------------------------------
E--------7--------5------------------------------


Chorus
e----------------------------------------------   
B----------------------------------------------
G----9-------7---3---4-----------------------------
D----9---9---7---3---4------------------------------
G----7---9---5---5---2------------------------------
E---------7-------------------------------------

Bridge  2x then back to Chorus
e------------------------------------------------------------------   
B-----------12---------12----------12----------10----------9--
G-------9-----------9-----------9------------9-----------9------
D----9----------9-----------9------------9-----------9----------
G------------------------------------------------------------------
E------------------------------------------------------------------
Comments