Fenix Tx - Ben Chords & Tabs

 

Ben Chords & Tabs

Fenix Tx Chords & Tabs

Version: 3 Type: Tab 0 ratings
1 star 2 stars 3 stars 4 stars 5 stars
comments

Ben Tab

Fenix Tx, ben.
Tabbed by Brian , guitarrocker316@aol.con.
  
 intro- 
-----------------------------------------------------
-----------------------------------------------------
-----------------------------------------------------
-2-----2------2------2-----2-----2-------------------
-2-----2------2------2-----2-----2-------------------
---0-0----0-0---0------0-0---0-0---0-----------------

riff#1
 
------------------------------------------------------
------------------------------------------------------
------------------------------------------------------
-2--2--222--5--55--555------------7--77--777----------
-2--2--222--3--33--333--5-5--555--5--55--555----------
-0--0--000--------------3-3--333----------------------
[ Tab from: http://www.guitartabs.cc/tabs/f/fenix_tx/ben_tab_ver_3.html ]
------------------------------------------------------
------------------------------------------------------
------------------------------------------------------
-9--9---999-----------------------------7--77-777----
-7--7---777--10--10-10--10-10--5-5-555--5--55-555----
--------------8---8--8---8--8--3-3-333---------------

when singing(same as riff #1)

chorus- 4x's

-----------------------------------------------------
-----------------------------------------------------
-----------------------------------------------------
-5---------------------------------------------------
-3----------5----7-----------------------------------
------------3----5-----------------------------------
 
:: Ultimate Guitar Archive :: 
http://www.ultimate-guitar.com 
 
Comments