Fenix Tx - Ben Chords & Tabs

 

Ben Chords & Tabs

Fenix Tx Chords & Tabs

Version: 1 Type: Tab 0 ratings
1 star 2 stars 3 stars 4 stars 5 stars
comments

Ben Tab

   
Tabbed By: Nick Hermes redings_rule45@hotmail.com

This is a really cool song, but if you are here, you already know that!

A) Intro					    B)

E -----------------------------------------         ---------------------------------------------
B -----------------------------------------         ---------------------------------------------
G -----------------------------------------         --------------5----5--------------7----7---
D --------2---2-2---2-2---2---2-2---2-2----         ----2----2----5----5----5----5----7----7-----
A --------2---2-2---2-2---2---2-2---2-2----         ----2----2----3----3----5----5----5----5-----
E --------0---0-0---0-0---0---0-0---0-0----         ----0----0--------------3----3--------------
                                                   1st -Ask me a question and I'll tell you all I know
C)                                                 2nd -I'll never know what you were thinking of that night
                                                  (chords strummed once and let ring) -Take a different road
E --------------------------------------
B --------------------------------------
G --------5---5---5-5-------------------
D --------5---5---5-5----5---7---7-7----
A --------3---3---3-3----5---7---7-7----
E -----------------------3---5---5-5---- 
  -How could I have ever saved you?
  -The only thing I've ever done was care.
  -How could I have ever blamed you?
  -You never promised that you would always be there (back to B)

D)
[ Tab from: http://www.guitartabs.cc/tabs/f/fenix_tx/ben_tab.html ]
E ----------------------------------------------------------------------------------------------
B ----------------------------------------------------------------------------------------------
G ----------------------------------------------------------------------------------------------
D ------2-2-2-2----2-2-2-2-2----2-2----2-2-2-2----2-2-2-2----2-2----2-2-2-2----2-2-2-2----2-2---
A -------------------------------------2-2-2-2----2-2-2-2----2-2----2-2-2-2----2-2-2-2----2-2---
E ------------------------------------------------------------------0-0-0-0----0-0-0-0----0-0---

E -------------------------------------------------------------------------------------------
B -------------------------------------------------------------------------------------------
G -------------------------------------------------------------------------------------------
D ------2-2-2-2----2-2-2-2----2-2----2-2-2-2----2-2-2-2----2-2----2-2-2-2----2-2-2-2----2-2--
A ------2-2-2-2----2-2-2-2----2-2----2-2-2-2----2-2-2-2----2-2----2-2-2-2----2-2-2-2----2-2--
E ------0-0-0-0----0-0-0-0----0-0----0-0-0-0----0-0-0-0----0-0----0-0-0-0----0-0-0-0----0-0--

E)

E ----------------------------------------------
B ----------------------------------------------
G ------5-5-5-5-5-5-5-5-------------------------
D ------5-5-5-5-5-5-5-5------5-5-5-5--7-7-7-7---
A ------3-3-3-3-3-3-3-3------5-5-5-5--7-7-7-7---
E ---------------------------3-3-3-3--5-5-5-5---

Intro
B x 4
Intro
B x 4 (first verse)
Intro
C x 4
B x 6 (second verse)
Intro
C x 4
B x 4
D x 1
B x 2 (chords hit once and let ring out)
E x 3
C x 1
B x 4
Into (now ending) End with same E chord
Comments