Fefe Dobson - Everything Chords & Tabs

 

Everything Chords & Tabs

Fefe Dobson Chords & Tabs

Version: 2 Type: Tab 0 ratings
1 star 2 stars 3 stars 4 stars 5 stars
comments

Everything Tab

   
-------------------------------------------------------------------------------
			     Everything - FeFe Dobson
-------------------------------------------------------------------------------
Tabbed by: Surferpat	
Tuning: Standard

You can get the idea of the different patterns, uses this basic riff.
The strumming pattern is easy to figure out as well
[ Tab from: http://www.guitartabs.cc/tabs/f/fefe_dobson/everything_tab_ver_2.html ]
Intro:                           Main Riff
e|----------------------------|---------------------------------------------|
B|-------------5--------------|---------------------------------------------|
G|------7-------6-------------|---7-----------------7-----------------------|
D|----------------7-----------|---7----7---9---5----7--7---9---10-----------|
A|----9------7----------------|---5----7---9---5----5--7---9---10-----------|
E|--7------5------------------|--------5---7---3-------5---7----8-----------|
Pre-Chorus
e|---------------------------------------------------------------------------|
B|---------------------------------------------------------------------------|
G|---3~---7~--9--12--14------------------------------------------------------|
D|---4~---9~--9--12--14------------------------------------------------------|
A|---4~---9~--7--10--12------------------------------------------------------|
E|---2~---7~-----------------------------------------------------------------|
Chorus
e|---------------------------------------------------------------------------|
B|---------------------------------------------------------------------------|
G|--7-----9------------------------------------------------------------------|
D|--7--5--9--7----4--9--10--7------------------------------------------------|
A|--5--5--7--7----4--9--10--7------------------------------------------------|
E|-----3-----5----2--7---8--5------------------------------------------------|
Bridge
e|---------------------------------------------------------------------------|
B|---------------------------------------------------------------------------|
G|--7--7--4--7---------------------------------------------------------------|
D|--7--7--4--7---5--4--2-2(let ring)----------------------------------------|
A|--5--4--2--5---5--4--2--2--------------------------------------------------|
E|---------------3--2--0--0--------------------------------------------------|




| /  slide up
| \  slide down
| h  hammer-on
| p  pull-off
| ~  strum
| +  harmonic
| x  Mute note

How to Play :figure out the strum, its fairly simple
Intro x4
Main Riff x2
Pre-Chorus 
Chorus x2
Intro x2
Main Riff x2
Pre-Chorus
Chorus x2
Intro x2
Bridge 
Solo (play main riff)
Pre-Chorus
Chorus x4
Outro (play intro)

===============================================================================
Comments