Feelers - Venus Chords & Tabs

 

Venus Chords & Tabs

Feelers Chords & Tabs

Version: 1 Type: Tab 0 ratings
1 star 2 stars 3 stars 4 stars 5 stars
comments

Venus Tab

   
Author/Artist: Feelers
Title: Venus
Album: Supersystem
Transcribed by: Richard Sterling
Email: pacman_kirk@metallica.com
This song is a great kiwi song by the best NZ band
------------------------------------------------------------------------------|
------------------------------------------------------------------------------|
------------------------------------------------------------------------------|
------------------------------------------------------------------------------|
-17--------------------17----------------------15-------------------10--------|
-15--------------------14----------------------13--------------------8--------|
 G5                    Gb5                     F5                   C5
-----------------------------------------|------------------------------------|
-----------------------------------------|------------------------------------|
-----------------------------------------|------------------------------------|
-----------------------------------------|------------------------------------|
--xx-14-----------xx-12---------xx-14----|------9--------xxx-10---------------|
--xx-12-----------xx-10---------xx-12----|------7--------xxx-8----------------|
     E5              D5            E5           B5           C5
----------------|-------------------------------------------------------------|
----------------|-------------------------------------------------------------|
----------------|-------------------------------------------------------------|
----------------|-------------------------------------------------------------|
--10------xx-9--|-------------------------------------------------------------|
--8-------xx-7--|-------------------------------------------------------------|
  C5        B5       For this part you go back to the E5 riff but instead
------------------------------------------------------------------------------|
------------------------------------------------------------------------------|
------------------------------------------------------------------------------|
------------------------------------------------------------------------------|
------------------------------------------------------------------------------|
------------------------------------------------------------------------------|
 end with the riff above^^
[ Tab from: http://www.guitartabs.cc/tabs/f/feelers/venus_tab.html ]
Comments