Feeder - We Cant Rewind Chords & Tabs

 

We Cant Rewind Chords & Tabs

Feeder Chords & Tabs

Version: 1 Type: Tab 0 ratings
1 star 2 stars 3 stars 4 stars 5 stars
comments

We Cant Rewind Tab

Artist : Feeder
Song : We can't rewind
Tab : II_Shadow_II



This is the tab for we can't rewind i think works best
its only a small variation from all the others but i 
think it works best

INTRO

e-------------------------------------|
B-------------------------------------|
G-------------------------------------| x4 (I THINK)
D-88888888666666668888888866666666----|
A-66666666666666666666666666666666----|
E-------------------------------------|
[ Tab from: http://www.guitartabs.cc/tabs/f/feeder/we_cant_rewind_tab.html ]
CHORUS
e---------------------------------------------------|
B---------------------------------------------------|
G--8-8---------------------8-8----------------------|
D--8-8---8-8--10-10--6-6---8-8--8-8--10-10--6-6-----|
A--6-6---8-8--10-10--6-6---6-6--8-8--10-10--6-6-----|
E--------6-6---8--8--4-4--------6-6---8--8--4-4-----|

e-----------------------------------------------
B-----------------------------------------------
G--8-8-8-8--------------------------------------
D--8-8-8-8-8-8-8-8-10-10-10-10-8-8-8-8----------
A--6-6-6-6-8-8-8-8-10-10-10-10-8-8-8-8----------
E----------6-6-6-6--8--8--8--8-3-3-3-3----------
Comments