Feeder - Victoria Chords & Tabs

 

Victoria Chords & Tabs

Feeder Chords & Tabs

Version: 1 Type: Tab 0 ratings
1 star 2 stars 3 stars 4 stars 5 stars
comments

Victoria Tab

   
Band: Feeder
Song: Victoria
Album: Tumble And Fall CDS

Standard Tuning

Intro:

gtr2:
e|-----------------------|x3
B|-----17-----17------17-|
G|---17-----17------17---|
D|-17-----17------17-----|
A|---------------x-------|
E|-----------------------|

then

gtr1:
e|-------------------------------------------------------------------------|
B|-1---------------------------------1-------------------------------------|
G|-0-0-0-0-0-0-0-0-0-0-0-0-0-0-0-0-0-0-0-0-0-0-0-0-0-0-0-0-0-0-0-0-0-0-0-0-|
D|-2-2-2-2-3-3-3-3-3-2-2-2-2-5-5-5-5-2-2-2-2-3-3-3-3-3-3-3-2-2-2-2-0-0-0-0-|
A|-3-3-3-3-3-3-3-3-3-3-3-3-3-5-5-5-5-3-3-3-3-3-3-3-3-3-3-3-3-3-3-3-3-3-3-3-|
E|-------------------------------------------------------------------------|
gtr2:
e|-----------------------------------------15-|
B|-17-15-17-15-17-15-----17-15-17-15-17-15----|
G|-------------------17-----------------------|
D|--------------------------------------------|
A|--------------------------------------------|
E|--------------------------------------------|


Verse:

gtr1:
e|-------------------------------------------------------------------------|
B|-1---------------------------------1-------------------------------------|
G|-0-0-0-0-0-0-0-0-0-0-0-0-0-0-0-0-0-0-0-0-0-0-0-0-0-0-0-0-0-0-0-0-0-0-0-0-|
D|-2-2-2-2-3-3-3-3-3-2-2-2-2-5-5-5-5-2-2-2-2-3-3-3-3-3-3-3-2-2-2-2-0-0-0-0-|
A|-3-3-3-3-3-3-3-3-3-3-3-3-3-5-5-5-5-3-3-3-3-3-3-3-3-3-3-3-3-3-3-3-3-3-3-3-|
E|-------------------------------------------------------------------------|
   just repeat this riff through all the verses

gtr2:
e|-----------------------------------------15-|
B|-17-15-17-15-17-15-----17-15-17-15-17-15----|
G|-------------------17-----------------------|
D|--------------------------------------------|
A|--------------------------------------------|
E|--------------------------------------------|
play it at the beginning & at the end of each verse

Pre-Chorus:
gtr1:
e|---------------------|play very fast
B|---------------------|
G|-2222222222222222222-|
D|-2222222222222222222-|
A|-0000000000000000000-|
E|---------------------|
gtr2
e|----------------------------------------------------------|
B|----------------------------------------------------------|
G|-17-17-17-17-17-17-17-17-17-17-17-17-17-17-17-17-17-17-17-|
D|----------------------------------------------------------|
A|----------------------------------------------------------|
E|----------------------------------------------------------|
   play this very fast too

Chorus:
[ Tab from: http://www.guitartabs.cc/tabs/f/feeder/victoria_tab.html ]
gtr1:strum these chords
e|-------------------------|x2
B|-------------------------|
G|-5--7--9--10--5--7-------|
D|-5--7--9--10--5--7--7--3-|
A|-3--5--7--8---3--5--7--3-|
E|--------------------5--1-|
gtr2:(not the exact amount)
e|-20-20-20-20-20-20-20-20-20\19-19-19-19\17-17-17-17\15-15-15-15/20-|
B|-------------------------------------------------------------------|
G|-------------------------------------------------------------------|
D|-------------------------------------------------------------------|
A|-------------------------------------------------------------------|
E|-------------------------------------------------------------------|
repeat till the chorus ends

Bridge:

gtr1:
e|---------------------------------------|x3 then |-----------|x2
B|---------------------------------------|        |-----------|
G|---------------------------------------|        |-----------|
D|-7777777777-7-9-1010101010101010101010-|        |--7-7-7-7--|
A|-7777777777-7-9-1010101010101010101010-|        |--7-7-7-7--|
E|-5555555555-5-7-8-8-8-8-8-8-8-8-8-8-8--|        |--5-5-5-5--|

gtr2:(not the exact amount)
e|----------------------------------------------------------------------|
B|-17-17-17-17-17-17-17-17-17-17-17/18-18-18\17-17-17\15-15-15\11-11/17-|
G|----------------------------------------------------------------------|
D|----------------------------------------------------------------------|
A|----------------------------------------------------------------------|
E|----------------------------------------------------------------------|

e|-------------------------------------------------------------|
B|-17-17-17-17-17-17-17-17-17-17-17/22-22-22\20-20-20\18-18-18-|
G|-------------------------------------------------------------|
D|-------------------------------------------------------------|
A|-------------------------------------------------------------|
E|-------------------------------------------------------------|

e|----------------------------------------------------------------------|
B|-17-17-17-17-17-17-17-17-17-17-17/18-18-18\17-17-17\15-15-15\11-11/17-|
G|----------------------------------------------------------------------|
D|----------------------------------------------------------------------|
A|----------------------------------------------------------------------|
E|----------------------------------------------------------------------|

Outro:
e|-----------------------------------------15-|x3
B|-17-15-17-15-17-15-----17-15-17-15-17-15----|
G|-------------------17-----------------------|
D|--------------------------------------------|
A|--------------------------------------------|
E|--------------------------------------------|

Play the parts in this order:

Intro
Verse x2
Pre chorus
Verse
Pre chorus
Chorus
verse x2
pre chorus
verse
pre chorus
chorus
bridge
verse x2
chorus
outro

here it is!!love it!
hope it's accurate enough!rate =)
Comments