Feeder - Undivided Chords & Tabs

 

Undivided Chords & Tabs

Feeder Chords & Tabs

Version: 1 Type: Tab 0 ratings
1 star 2 stars 3 stars 4 stars 5 stars
comments

Undivided Tab

   
SONG: UNDIVIDED
TAB BY: ALEX BALL (Al_Fish18@hotmail.com)

INTRO/VERSE

GUITAR 1: PLAY THESE CHORDS-LISTEN TO CD FOR RHYTHM

    Em7  C9   Dsus4
E|--3----3----3----|
B|--3----3----3----|
G|--0----0----2----|
D|--2----2----0----|
A|--2----3---------|
E|--0--------------|

An example of when to change chords:
Em7        C9     Dsus4
Searching through,
Em7     C9    Dsus4
broken pieces,
[ Tab from: http://www.guitartabs.cc/tabs/f/feeder/undivided_tab.html ]
GUITAR 2: PICKS THIS
    Em7   C9                     Dsus4
E|------------------------------------|
B|------------------------------------|
G|------0-----0----------0-----0---0--|
D|----2-----2-----2----2-----2---0----|
A|--------3-----3----3-----3----------|
E|--0---------------------------------|

CHORUS: PLAY THESE CHORDS

    D   Em7 C9  G
E|--2---3---3---3---|
B|--3---3---3---3---|
G|--2---0---0---0---|
D|--0---2---2---0---|
A|--0---2---3---2---|
E|------0-------3---|

An example of when to change chords:
D     Em7     C9    G
I will be there if you will come....

On the third verse a third guitar plays:

E|--0-----0-----0----|
B|----3-----3-----3--|
G|------0-----0------|
D|-------------------|
A|-------------------|
E|-------------------|
Comments