Feeder - Tell All Your Friends Chords & Tabs

 

Tell All Your Friends Chords & Tabs

Feeder Chords & Tabs

Version: 1 Type: Tab 0 ratings
1 star 2 stars 3 stars 4 stars 5 stars
comments

Tell All Your Friends Tab

Music X Tabs [http://www.mxtabs.net]
Artist: Feeder
Album: Echo Park
Title: Tell all your friends
Tabbed By: Tom2K2308
Notes: Standard tuning!!

I am not sure about this one. Its probably wrong but here it is anyway.

INTRO BASS RIFF

|----------------------------------|
|----------------------------------|
|----------------------------------|
|----------------------------------|
|----------3-3-3---0-0--0-1-0------|
|--1-1-1----------------------3-1--|


VERSE GUITAR RIFF (start bar 3)

|----------------------------------|
|----------------------------------|
|----------0---0--------0---0------|
|----------------------------------|
|------3------------3--------------|
|--1-------------------------------|


PRE-CHORUS

(til i) see his house and the pale blue skies of
|------------------------------------------------|
|------------------------------------------------|
|---------3---3---3---3---3----------------------|
|---------3---3---3---3---3---3---3---3---3---3--|
|---------1---1---1---1---1---3---3---3---3---3--|
|-----------------------------1---1---1---1---1--|
[ Tab from: http://www.guitartabs.cc/tabs/f/feeder/tell_all_your_friends_tab.html ]
golden fields that would burn your eyes
|------------------------------------------|
|------------------------------------------|
|---5---5---5---5---5----------------------|
|---5---5---5---5---5---5---5---5---5---5--|
|---3---3---3---3---3---5---5---5---5---5--|
|-----------------------3---3---3---3---3--|

so lets take a drive,   underneath the sun
|----------------------------------------------|
|----------------------------------------------|
|---3---3---3---3---3-----------------------5--|
|---3---3---3---3---3---3---3---3---3---3---5--|
|---1---1---1---1---1---3---3---3---3---3---3--|
|-----------------------1---1---1---1---1------|


PRECHORUS RIFF (played over chords)

|--------------------------| on the last |--------------------------|
|--6-----6-----6-----6-----| chord the   |--8-----8-----8-----8-----|
|-----5-----5-----5-----5--| Riff changes|--------------------------|
|--------------------------| to this---> |----10----10----10----10--|
|--------------------------|             |--------------------------|
|--------------------------|             |--------------------------|


CHORUS

                         tell all your friends
|-----------------------------------------|
|-----------------------------------------|
|------------------------------9---9---9--|
|--3---3---3---3---7---7---7---9---9---9--|
|--3---3---3---3---7---7---7---7---7---7--|
|--1---1---1---1---5---5---5--------------|

Comments