Feeder - Shatter Chords & Tabs

 

Shatter Chords & Tabs

Feeder Chords & Tabs

Version: 1 Type: Tab 2 ratings
1 star 2 stars 3 stars 4 stars 5 stars
comments

Shatter Tab

Artist:feeder
song:shatter
   


       Intro
E)---------------------------------------------------------------|
B)---------------------------------------------------------------|
G)--5-5--5-5--5-5--5-5--5-5-5-5---8-8--8-8--8-8--8-8--8-8-8-8----|
D)--5-5--5-5--5-5--5-5--5-5-5-5---8-8--8-8--8-8--8-8--8-8-8-8----|
A)--3-3--3-3--3-3--3-3--3-3-3-3---6-6--6-6--6-6--6-6--6-6-6-6----|
E)---------------------------------------------------------------|


        verse
E)-------------------------------------------------------------|
B)-------------------------------------------------------------|
G)-------------------------------------------------------------|
D)--5-5--5-5--5-5--5-5---5-5-5-5---8-8--8-8--8-8--8-8--8-8-8-8-|
A)--3-3--3-3--3-3--3-3- -3-3-3-3---6-6--6-6--6-6--6-6--6-6-6-6-| or -10-10--13-13-|
E)-------------------------------------------------------------|    -8--8---11-11-|


       chorus
E)----------------------------------------------------------------------|
B)----------------------------------------------------------------------|
G)----------------------------------------------------------------------|
D)--5-5-5-5-5-5-5-5-----------------8-8-8-8-8-8-8-8---------------------|
A)--3-3-3-3-3-3-3-3-6-6-6-6-6-6-6-6-6-6-6-6-6-6-6-6-8-8-8-8-8-8-8-8-----|
E)------------------4-4-4-4-4-4-4-4-----------------6-6-6-6-6-6-6-6-----|

    
       pre-verse
E)---------------------------------------------------------------|
B)---------------------------------------------------------------|
G)--5-5--5-5--5-5--5-5--5-5-5-5---8-8--8-8--8-8--8-8--8-8-8-8----|
D)--5-5--5-5--5-5--5-5--5-5-5-5---8-8--8-8--8-8--8-8--8-8-8-8----|
A)--3-3--3-3--3-3--3-3--3-3-3-3---6-6--6-6--6-6--6-6--6-6-6-6----|
E)---------------------------------------------------------------|
[ Tab from: http://www.guitartabs.cc/tabs/f/feeder/shatter_tab.html ]
       
         Verse
E)---------------------------------------------------------------|
B)---------------------------------------------------------------|
G)---------------------------------------------------------------|
D)--5-5--5-5--5-5--5-5--5-5-5-5---8-8--8-8--8-8--8-8--8-8-8-8----|
A)--3-3--3-3--3-3--3-3--3-3-3-3---6-6--6-6--6-6--6-6--6-6-6-6----|
E)---------------------------------------------------------------|

   chorus
E)----------------------------------------------------------------------|
B)----------------------------------------------------------------------|
G)----------------------------------------------------------------------|
D)--5-5-5-5-5-5-5-5------------------8-8-8-8-8-8-8-8--------------------|
A)--3-3-3-3-3-3-3-3-6-6-6-6-6-6-6-6-6-6-6-6-6-6-6-6-8-8-8-8-8-8-8-8-----|
E)------------------4-4-4-4-4-4-4-4-----------------6-6-6-6-6-6-6-6-----|

     solo
E)---------------------------------------------------------------------|
B)----------------------------------9h10p9h10p-------------------------|
G)--17-15-12-15-8/9~-17-15-12-15-8/9~-----------17-15-12-15-8/9~-------|
D)---------------------------------------------------------------------|
A)---------------------------------------------------------------------|
E)---------------------------------------------------------------------|

E)-----------------------------------|
B)-----------------------------------|
G)--5-5--5-5--5-5--5-5---5-5-5-5-----|
D)--5-5--5-5--5-5--5-5---5-5-5-5-----|
A)--3-3--3-3--3-3--3-3- -3-3-3-3-----|
E)-----------------------------------|


 chorus
E)----------------------------------------------------------------------|
B)----------------------------------------------------------------------|
G)----------------------------------------------------------------------|
D)--5-5-5-5-5-5-5-5------------------8-8-8-8-8-8-8-8--------------------|
A)--3-3-3-3-3-3-3-3-6-6-6-6-6-6-6-6-6-6-6-6-6-6-6-6-8-8-8-8-8-8-8-8-----|
E)-------------------4-4-4-4-4-4-4-4------------------6-6-6-6-6-6-6-6---|

Comments