Feeder - Seven Days In The Sun Chords & Tabs

 

Seven Days In The Sun Chords & Tabs

Feeder Chords & Tabs

Version: 3 Type: Bass Tab 0 ratings
1 star 2 stars 3 stars 4 stars 5 stars
comments

Seven Days In The Sun Bass Tab

   
Intro

E|------------|-------------|
A|------------|-------------|
D|------5-5-5-|------3-3-2-1|
G|-3-3-3------|-5-5-5-------|

E|------------|-------------|
A|------------|-------------|
D|------5-5-5-|------3-3-3--|
G|-3-3-3------|-5-5-5-------|

Verse

E|---------------------------------|
A|---------------------------------|
D|---------5-5-5-5-----------------|
G|-3-3-3-3---------5-5-5-5-8-8-8-8-|

Pre-Chorus

E|---------------------------------|
A|---------------------------------|
D|---------------------------------|
G|-5-5-5-5-5-5-5-5-8-8-8-8-8-8-8-8-|

Chorus = Intro (with no gap)

E|------------------------|
A|------------------------|
D|------5-5-5-----5-5-4-3-|
G|-3-3-3-----5-5-5--------|
[ Tab from: http://www.guitartabs.cc/tabs/f/feeder/seven_days_in_the_sun_btab_ver_3.html ]
Post Chorus = Intro


E|------------|-------------|
A|------------|-------------|
D|------5-5-5-|------5-5-4-3|
G|-3-3-3------|-5-5-5-------|

E|------------|-------------|
A|------------|-------------|
D|------5-5-5-|------5-5-5--|
G|-3-3-3------|-5-5-5-------|

Bridge

E|----------------------------------------------------------------------|
A|----------------------------------------------------------------------|
D|----------------------------------------------------------------------|
G|-2-2-2-2-2-2-2-2-3-3-3-3-3-3-3-3-5-5-5-5-5-5-5-5-8-8-8-8-8-8-8-8-8-8-8|

Order;

Intro
Verse x10
Pre-Chorus
Chorus x5
Post Chorus
Verse x10
Pre-Chorus x2
Chorus x5
Pre-Chorus x2
Bridge
Intro
(Break)
Chorus x5
Pre-Chorus x4
Comments