Feeder - Seven Days In The Sun Chords & Tabs

 

Seven Days In The Sun Chords & Tabs

Feeder Chords & Tabs

Version: 2 Type: Bass Tab 0 ratings
1 star 2 stars 3 stars 4 stars 5 stars
comments

Seven Days In The Sun Bass Tab

Artist:	Feeder
Song:	Seven Days In The Sun
Album:	Echo Park
Tabber: Richard Wyatt		
www.angelfire.com/indie/waterfront

Intro

G|--------------------------------------
D|--------------------------------------
A|-------5-5-5------------3-3--2---1----
E|-3-3-3------------5-5-5---------------

VERSE:

G|------------------------
D|------------------------      REPEATED
A|------5555--------3333--
E|-3333------7777---------

Pre-chorus:

G|-------------------------------------------
D|-------------------------------------------
A|-------------------------------------------
E|--5-5-5-5-5-5-5-5-8--8--8--8--8--8--8--8---

Chorus:
(Without gap several times)
[ Tab from: http://www.guitartabs.cc/tabs/f/feeder/seven_days_in_the_sun_btab_ver_2.html ]
G|--------------------------------
D|--------------------------------
A|-------5-5-5-------3-3--2--1----
E|-3-3-3-------5-5-5--------------

(Then with gap)

G|--------------------------------------
D|--------------------------------------
A|-------5-5-5------------3-3--2---1----
E|-3-3-3------------5-5-5---------------

Bridge:

G|-----------------------------------------------------
D|-----------------------------------------------------
A|-2-2-2-2-2-2-2-2-3-3-3-3-3-3-3-3-8--8--8--8--5-5-5-5-
E|-----------------------------------------------------


Outro is the same as the intro

===========

Feeder - Seven Days In The Sun
Tabbed By: Anand
EMail: probasskid@hotmail.com


The guy who tabbed this had completely right tabs apart from the 
verse which should be


A-----5555----3333
E-3333----5555----
Comments