Feeder - Seven Days In The Sun Chords & Tabs

 

Seven Days In The Sun Chords & Tabs

Feeder Chords & Tabs

Version: 1 Type: Bass Tab 0 ratings
1 star 2 stars 3 stars 4 stars 5 stars
comments

Seven Days In The Sun Bass Tab

feeder-seven days in the sun
tabbed by MOLEY!!

this is the main bit of the song you'll have to work out the last few bits

Verse
[ Tab from: http://www.guitartabs.cc/tabs/f/feeder/seven_days_in_the_sun_btab.html ]
E-3-3------7-7-------
A----5-5-5----3-3-2-1
D--------------------
G--------------------

Chorus
E-3-3-3-3-------7-7-7-7-------
A--------5-5-5-5-------3-3-3-3 
D-----------------------------
G-----------------------------

Bridge
E-3333333333333333----------------
A-----------------3333333333333333
Comments